  0
SECTION
  2
HEADER
  9
$ACADVER
  1
AC1024
  9
$ACADMAINTVER
 70
     6
  9
$DWGCODEPAGE
  3
ANSI_1252
  9
$INSBASE
 10
0.0
 20
0.0
 30
0.0
  9
$EXTMIN
 10
1.000000E+20
 20
1.000000E+20
 30
1.000000E+20
  9
$EXTMAX
 10
-1.000000E+20
 20
-1.000000E+20
 30
-1.000000E+20
  9
$LIMMIN
 10
0.0
 20
0.0
  9
$LIMMAX
 10
420.0
 20
297.0
  9
$ORTHOMODE
 70
     0
  9
$REGENMODE
 70
     1
  9
$FILLMODE
 70
     1
  9
$QTEXTMODE
 70
     0
  9
$MIRRTEXT
 70
     1
  9
$LTSCALE
 40
1.0
  9
$ATTMODE
 70
     1
  9
$TEXTSIZE
 40
2.5
  9
$TRACEWID
 40
1.0
  9
$TEXTSTYLE
  7
Standard
  9
$CLAYER
  8
0
  9
$CELTYPE
  6
ByLayer
  9
$CECOLOR
 62
   256
  9
$CELTSCALE
 40
1.0
  9
$DISPSILH
 70
     0
  9
$DIMSCALE
 40
1.0
  9
$DIMASZ
 40
2.5
  9
$DIMEXO
 40
0.625
  9
$DIMDLI
 40
3.75
  9
$DIMRND
 40
0.0
  9
$DIMDLE
 40
0.0
  9
$DIMEXE
 40
1.25
  9
$DIMTP
 40
0.0
  9
$DIMTM
 40
0.0
  9
$DIMTXT
 40
2.5
  9
$DIMCEN
 40
2.5
  9
$DIMTSZ
 40
0.0
  9
$DIMTOL
 70
     0
  9
$DIMLIM
 70
     0
  9
$DIMTIH
 70
     0
  9
$DIMTOH
 70
     0
  9
$DIMSE1
 70
     0
  9
$DIMSE2
 70
     0
  9
$DIMTAD
 70
     1
  9
$DIMZIN
 70
     8
  9
$DIMBLK
  1

  9
$DIMASO
 70
     1
  9
$DIMSHO
 70
     1
  9
$DIMPOST
  1

  9
$DIMAPOST
  1

  9
$DIMALT
 70
     0
  9
$DIMALTD
 70
     3
  9
$DIMALTF
 40
0.03937
  9
$DIMLFAC
 40
1.0
  9
$DIMTOFL
 70
     1
  9
$DIMTVP
 40
0.0
  9
$DIMTIX
 70
     0
  9
$DIMSOXD
 70
     0
  9
$DIMSAH
 70
     0
  9
$DIMBLK1
  1

  9
$DIMBLK2
  1

  9
$DIMSTYLE
  2
ISO-25
  9
$DIMCLRD
 70
     0
  9
$DIMCLRE
 70
     0
  9
$DIMCLRT
 70
     0
  9
$DIMTFAC
 40
1.0
  9
$DIMGAP
 40
0.625
  9
$DIMJUST
 70
     0
  9
$DIMSD1
 70
     0
  9
$DIMSD2
 70
     0
  9
$DIMTOLJ
 70
     0
  9
$DIMTZIN
 70
     8
  9
$DIMALTZ
 70
     0
  9
$DIMALTTZ
 70
     0
  9
$DIMUPT
 70
     0
  9
$DIMDEC
 70
     2
  9
$DIMTDEC
 70
     2
  9
$DIMALTU
 70
     2
  9
$DIMALTTD
 70
     3
  9
$DIMTXSTY
  7
Standard
  9
$DIMAUNIT
 70
     0
  9
$DIMADEC
 70
     0
  9
$DIMALTRND
 40
0.0
  9
$DIMAZIN
 70
     0
  9
$DIMDSEP
 70
    44
  9
$DIMATFIT
 70
     3
  9
$DIMFRAC
 70
     0
  9
$DIMLDRBLK
  1

  9
$DIMLUNIT
 70
     2
  9
$DIMLWD
 70
    -2
  9
$DIMLWE
 70
    -2
  9
$DIMTMOVE
 70
     0
  9
$DIMFXL
 40
1.0
  9
$DIMFXLON
 70
     0
  9
$DIMJOGANG
 40
0.785398
  9
$DIMTFILL
 70
     0
  9
$DIMTFILLCLR
 70
     0
  9
$DIMARCSYM
 70
     0
  9
$DIMLTYPE
  6

  9
$DIMLTEX1
  6

  9
$DIMLTEX2
  6

  9
$DIMTXTDIRECTION
 70
     0
  9
$LUNITS
 70
     2
  9
$LUPREC
 70
     4
  9
$SKETCHINC
 40
1.0
  9
$FILLETRAD
 40
10.0
  9
$AUNITS
 70
     0
  9
$AUPREC
 70
     0
  9
$MENU
  1
.
  9
$ELEVATION
 40
0.0
  9
$PELEVATION
 40
0.0
  9
$THICKNESS
 40
0.0
  9
$LIMCHECK
 70
     0
  9
$CHAMFERA
 40
0.0
  9
$CHAMFERB
 40
0.0
  9
$CHAMFERC
 40
0.0
  9
$CHAMFERD
 40
0.0
  9
$SKPOLY
 70
     0
  9
$TDCREATE
 40
2457828.435193264
  9
$TDUCREATE
 40
2457828.393526597
  9
$TDUPDATE
 40
2457828.435194167
  9
$TDUUPDATE
 40
2457828.3935275
  9
$TDINDWG
 40
0.0000000116
  9
$TDUSRTIMER
 40
0.0000000116
  9
$USRTIMER
 70
     1
  9
$ANGBASE
 50
0.0
  9
$ANGDIR
 70
     0
  9
$PDMODE
 70
     0
  9
$PDSIZE
 40
0.0
  9
$PLINEWID
 40
0.0
  9
$SPLFRAME
 70
     0
  9
$SPLINETYPE
 70
     6
  9
$SPLINESEGS
 70
     8
  9
$HANDSEED
  5
3F5
  9
$SURFTAB1
 70
     6
  9
$SURFTAB2
 70
     6
  9
$SURFTYPE
 70
     6
  9
$SURFU
 70
     6
  9
$SURFV
 70
     6
  9
$UCSBASE
  2

  9
$UCSNAME
  2

  9
$UCSORG
 10
0.0
 20
0.0
 30
0.0
  9
$UCSXDIR
 10
1.0
 20
0.0
 30
0.0
  9
$UCSYDIR
 10
0.0
 20
1.0
 30
0.0
  9
$UCSORTHOREF
  2

  9
$UCSORTHOVIEW
 70
     0
  9
$UCSORGTOP
 10
0.0
 20
0.0
 30
0.0
  9
$UCSORGBOTTOM
 10
0.0
 20
0.0
 30
0.0
  9
$UCSORGLEFT
 10
0.0
 20
0.0
 30
0.0
  9
$UCSORGRIGHT
 10
0.0
 20
0.0
 30
0.0
  9
$UCSORGFRONT
 10
0.0
 20
0.0
 30
0.0
  9
$UCSORGBACK
 10
0.0
 20
0.0
 30
0.0
  9
$PUCSBASE
  2

  9
$PUCSNAME
  2

  9
$PUCSORG
 10
0.0
 20
0.0
 30
0.0
  9
$PUCSXDIR
 10
1.0
 20
0.0
 30
0.0
  9
$PUCSYDIR
 10
0.0
 20
1.0
 30
0.0
  9
$PUCSORTHOREF
  2

  9
$PUCSORTHOVIEW
 70
     0
  9
$PUCSORGTOP
 10
0.0
 20
0.0
 30
0.0
  9
$PUCSORGBOTTOM
 10
0.0
 20
0.0
 30
0.0
  9
$PUCSORGLEFT
 10
0.0
 20
0.0
 30
0.0
  9
$PUCSORGRIGHT
 10
0.0
 20
0.0
 30
0.0
  9
$PUCSORGFRONT
 10
0.0
 20
0.0
 30
0.0
  9
$PUCSORGBACK
 10
0.0
 20
0.0
 30
0.0
  9
$USERI1
 70
     0
  9
$USERI2
 70
     0
  9
$USERI3
 70
     0
  9
$USERI4
 70
     0
  9
$USERI5
 70
     0
  9
$USERR1
 40
0.0
  9
$USERR2
 40
0.0
  9
$USERR3
 40
0.0
  9
$USERR4
 40
0.0
  9
$USERR5
 40
0.0
  9
$WORLDVIEW
 70
     1
  9
$SHADEDGE
 70
     3
  9
$SHADEDIF
 70
    70
  9
$TILEMODE
 70
     1
  9
$MAXACTVP
 70
    64
  9
$PINSBASE
 10
0.0
 20
0.0
 30
0.0
  9
$PLIMCHECK
 70
     0
  9
$PEXTMIN
 10
1.000000E+20
 20
1.000000E+20
 30
1.000000E+20
  9
$PEXTMAX
 10
-1.000000E+20
 20
-1.000000E+20
 30
-1.000000E+20
  9
$PLIMMIN
 10
0.0
 20
0.0
  9
$PLIMMAX
 10
420.0
 20
297.0
  9
$UNITMODE
 70
     0
  9
$VISRETAIN
 70
     1
  9
$PLINEGEN
 70
     0
  9
$PSLTSCALE
 70
     1
  9
$TREEDEPTH
 70
  3020
  9
$CMLSTYLE
  2
Standard
  9
$CMLJUST
 70
     0
  9
$CMLSCALE
 40
20.0
  9
$PROXYGRAPHICS
 70
     1
  9
$MEASUREMENT
 70
     1
  9
$CELWEIGHT
370
    -1
  9
$ENDCAPS
280
     0
  9
$JOINSTYLE
280
     0
  9
$LWDISPLAY
290
     0
  9
$INSUNITS
 70
     4
  9
$HYPERLINKBASE
  1

  9
$STYLESHEET
  1

  9
$XEDIT
290
     1
  9
$CEPSNTYPE
380
     0
  9
$PSTYLEMODE
290
     1
  9
$FINGERPRINTGUID
  2
{9672DDC3-8877-43BA-A66B-22E103CC54FC}
  9
$VERSIONGUID
  2
{FAEB1C32-E019-11D5-929B-00C0DF256EC4}
  9
$EXTNAMES
290
     1
  9
$PSVPSCALE
 40
0.0
  9
$OLESTARTUP
290
     0
  9
$SORTENTS
280
   127
  9
$INDEXCTL
280
     0
  9
$HIDETEXT
280
     1
  9
$XCLIPFRAME
280
     2
  9
$HALOGAP
280
     0
  9
$OBSCOLOR
 70
   257
  9
$OBSLTYPE
280
     0
  9
$INTERSECTIONDISPLAY
280
     0
  9
$INTERSECTIONCOLOR
 70
   257
  9
$DIMASSOC
280
     2
  9
$PROJECTNAME
  1

  9
$CAMERADISPLAY
290
     0
  9
$LENSLENGTH
 40
50.0
  9
$CAMERAHEIGHT
 40
0.0
  9
$STEPSPERSEC
 40
2.0
  9
$STEPSIZE
 40
6.0
  9
$3DDWFPREC
 40
2.0
  9
$PSOLWIDTH
 40
5.0
  9
$PSOLHEIGHT
 40
80.0
  9
$LOFTANG1
 40
1.570796
  9
$LOFTANG2
 40
1.570796
  9
$LOFTMAG1
 40
0.0
  9
$LOFTMAG2
 40
0.0
  9
$LOFTPARAM
 70
     7
  9
$LOFTNORMALS
280
     1
  9
$LATITUDE
 40
37.795
  9
$LONGITUDE
 40
-122.394
  9
$NORTHDIRECTION
 40
0.0
  9
$TIMEZONE
 70
 -8000
  9
$LIGHTGLYPHDISPLAY
280
     1
  9
$TILEMODELIGHTSYNCH
280
     1
  9
$CMATERIAL
347
44
  9
$SOLIDHIST
280
     0
  9
$SHOWHIST
280
     1
  9
$DWFFRAME
280
     2
  9
$DGNFRAME
280
     2
  9
$REALWORLDSCALE
290
     1
  9
$INTERFERECOLOR
 62
   256
  9
$CSHADOW
280
     0
  9
$SHADOWPLANELOCATION
 40
0.0
  0
ENDSEC
  0
SECTION
  2
CLASSES
  0
CLASS
  1
ACDBDICTIONARYWDFLT
  2
AcDbDictionaryWithDefault
  3
ObjectDBX Classes
 90
        0
 91
        4
280
     0
281
     0
  0
CLASS
  1
VISUALSTYLE
  2
AcDbVisualStyle
  3
ObjectDBX Classes
 90
     4095
 91
        4
280
     0
281
     0
  0
CLASS
  1
MATERIAL
  2
AcDbMaterial
  3
ObjectDBX Classes
 90
     1153
 91
        4
280
     0
281
     0
  0
CLASS
  1
SCALE
  2
AcDbScale
  3
ObjectDBX Classes
 90
     1153
 91
        4
280
     0
281
     0
  0
CLASS
  1
TABLESTYLE
  2
AcDbTableStyle
  3
ObjectDBX Classes
 90
     4095
 91
        4
280
     0
281
     0
  0
CLASS
  1
MLEADERSTYLE
  2
AcDbMLeaderStyle
  3
ACDB_MLEADERSTYLE_CLASS
 90
     4095
 91
        4
280
     0
281
     0
  0
CLASS
  1
SUN
  2
AcDbSun
  3
SCENEOE
 90
     1153
 91
        4
280
     0
281
     0
  0
CLASS
  1
DICTIONARYVAR
  2
AcDbDictionaryVar
  3
ObjectDBX Classes
 90
        0
 91
        4
280
     0
281
     0
  0
CLASS
  1
CELLSTYLEMAP
  2
AcDbCellStyleMap
  3
ObjectDBX Classes
 90
     1152
 91
        4
280
     0
281
     0
  0
ENDSEC
  0
SECTION
  2
TABLES
  0
TABLE
  2
VPORT
  5
8
330
0
100
AcDbSymbolTable
 70
     1
  0
VPORT
  5
29
330
8
100
AcDbSymbolTableRecord
100
AcDbViewportTableRecord
  2
*Active
 70
     0
 10
0.0
 20
0.0
 11
1.0
 21
1.0
 12
344.186916
 22
148.5
 13
0.0
 23
0.0
 14
10.0
 24
10.0
 15
10.0
 25
10.0
 16
0.0
 26
0.0
 36
1.0
 17
0.0
 27
0.0
 37
0.0
 40
297.0
 41
1.972973
 42
50.0
 43
0.0
 44
0.0
 50
0.0
 51
0.0
 71
     0
 72
   100
 73
     1
 74
     3
 75
     0
 76
     0
 77
     0
 78
     0
281
     0
 65
     1
110
0.0
120
0.0
130
0.0
111
1.0
121
0.0
131
0.0
112
0.0
122
1.0
132
0.0
 79
     0
146
0.0
348
2F
 60
     3
 61
     5
292
     1
282
     1
141
0.0
142
0.0
 63
   250
361
6D
  0
ENDTAB
  0
TABLE
  2
LTYPE
  5
5
330
0
100
AcDbSymbolTable
 70
     1
  0
LTYPE
  5
14
330
5
100
AcDbSymbolTableRecord
100
AcDbLinetypeTableRecord
  2
ByBlock
 70
     0
  3

 72
    65
 73
     0
 40
0.0
  0
LTYPE
  5
15
330
5
100
AcDbSymbolTableRecord
100
AcDbLinetypeTableRecord
  2
ByLayer
 70
     0
  3

 72
    65
 73
     0
 40
0.0
  0
LTYPE
  5
16
330
5
100
AcDbSymbolTableRecord
100
AcDbLinetypeTableRecord
  2
Continuous
 70
     0
  3
Solid line
 72
    65
 73
     0
 40
0.0
  0
ENDTAB
  0
TABLE
  2
LAYER
  5
2
330
0
100
AcDbSymbolTable
 70
     1
  0
LAYER
  5
10
330
2
100
AcDbSymbolTableRecord
100
AcDbLayerTableRecord
  2
0
 70
     0
 62
   106
  6
Continuous
370
     0
390
F
347
46
  0
ENDTAB
  0
TABLE
  2
STYLE
  5
3
330
0
100
AcDbSymbolTable
 70
     4
  0
STYLE
  5
11
330
3
100
AcDbSymbolTableRecord
100
AcDbTextStyleTableRecord
  2
Standard
 70
     0
 40
0.0
 41
1.0
 50
0.0
 71
     0
 42
2.5
  3
txt
  4

  0
STYLE
  5
6E
330
3
100
AcDbSymbolTableRecord
100
AcDbTextStyleTableRecord
  2
Default
 70
     0
 40
0.0
 41
1.0
 50
0.0
 71
     0
 42
2.5
  3

  4

1001
ACAD
1000
txt
1071
        0
  0
STYLE
  5
6F
330
3
100
AcDbSymbolTableRecord
100
AcDbTextStyleTableRecord
  2
ISO
 70
     0
 40
0.0
 41
1.0
 50
0.0
 71
     0
 42
2.5
  3

  4

1001
ACAD
1000
txt
1071
        0
  0
STYLE
  5
70
330
3
100
AcDbSymbolTableRecord
100
AcDbTextStyleTableRecord
  2
zucchetti
 70
     0
 40
0.0
 41
1.0
 50
0.0
 71
     0
 42
2.5
  3

  4

1001
ACAD
1000
Arial
1071
        0
  0
ENDTAB
  0
TABLE
  2
VIEW
  5
6
330
0
100
AcDbSymbolTable
 70
     0
  0
ENDTAB
  0
TABLE
  2
UCS
  5
7
330
0
100
AcDbSymbolTable
 70
     0
  0
ENDTAB
  0
TABLE
  2
APPID
  5
9
330
0
100
AcDbSymbolTable
 70
     1
  0
APPID
  5
12
330
9
100
AcDbSymbolTableRecord
100
AcDbRegAppTableRecord
  2
ACAD
 70
     0
  0
ENDTAB
  0
TABLE
  2
DIMSTYLE
  5
A
330
0
100
AcDbSymbolTable
 70
     4
100
AcDbDimStyleTable
  0
DIMSTYLE
105
27
330
A
100
AcDbSymbolTableRecord
100
AcDbDimStyleTableRecord
  2
ISO-25
 70
     0
 41
2.5
 42
0.625
 43
3.75
 44
1.25
 73
     0
 74
     0
 77
     1
 78
     8
140
2.5
141
2.5
143
0.03937
147
0.625
171
     3
172
     1
178
     0
271
     2
272
     2
274
     3
278
    44
283
     0
284
     8
340
11
  0
DIMSTYLE
105
71
330
A
100
AcDbSymbolTableRecord
100
AcDbDimStyleTableRecord
  2
Default
 70
     0
  3
<>
 41
4.375
 42
1.05
 44
2.1
 49
10.01
 73
     0
 74
     0
 77
     1
 78
     8
140
3.5
146
0.4
147
1.75
172
     1
271
     2
178
     3
271
     2
272
     3
284
     8
340
6E
341
72
342
72
  0
DIMSTYLE
105
79
330
A
100
AcDbSymbolTableRecord
100
AcDbDimStyleTableRecord
  2
ISO
 70
     0
  3
<>
 41
4.375
 42
1.05
 44
2.1
 49
10.01
 73
     0
 74
     0
 77
     1
 78
     8
140
3.5
146
0.4
147
1.75
172
     1
271
     2
178
     3
271
     2
272
     3
284
     8
340
6F
341
72
342
72
  0
DIMSTYLE
105
7A
330
A
100
AcDbSymbolTableRecord
100
AcDbDimStyleTableRecord
  2
zucchetti
 70
     0
  3
<>
 41
3.0
 42
0.9
 44
1.8
 49
8.58
 73
     0
 74
     0
 77
     1
 78
     8
140
3.0
146
0.6
147
1.5
172
     1
176
     3
177
     3
271
     2
178
     3
271
     2
272
     2
284
     8
340
70
  0
ENDTAB
  0
TABLE
  2
BLOCK_RECORD
  5
1
330
0
100
AcDbSymbolTable
 70
     7
  0
BLOCK_RECORD
  5
1F
330
1
100
AcDbSymbolTableRecord
100
AcDbBlockTableRecord
  2
*Model_Space
340
22
 70
     0
280
     1
281
     0
  0
BLOCK_RECORD
  5
1B
330
1
100
AcDbSymbolTableRecord
100
AcDbBlockTableRecord
  2
*Paper_Space
340
1E
 70
     0
280
     1
281
     0
  0
BLOCK_RECORD
  5
23
330
1
100
AcDbSymbolTableRecord
100
AcDbBlockTableRecord
  2
*Paper_Space0
340
26
 70
     0
280
     1
281
     0
  0
BLOCK_RECORD
  5
72
330
1
100
AcDbSymbolTableRecord
100
AcDbBlockTableRecord
  2
_CLOSED
340
0
 70
     0
280
     1
281
     0
  0
BLOCK_RECORD
  5
7B
330
1
100
AcDbSymbolTableRecord
100
AcDbBlockTableRecord
  2
a
340
0
102
{BLKREFS
331
16C
102
}
 70
     0
280
     1
281
     0
  0
BLOCK_RECORD
  5
16D
330
1
100
AcDbSymbolTableRecord
100
AcDbBlockTableRecord
  2
b
340
0
102
{BLKREFS
331
233
102
}
 70
     0
280
     1
281
     0
  0
BLOCK_RECORD
  5
234
330
1
100
AcDbSymbolTableRecord
100
AcDbBlockTableRecord
  2
c
340
0
102
{BLKREFS
331
27F
102
}
 70
     0
280
     1
281
     0
  0
BLOCK_RECORD
  5
280
330
1
100
AcDbSymbolTableRecord
100
AcDbBlockTableRecord
  2
d
340
0
102
{BLKREFS
331
36F
102
}
 70
     0
280
     1
281
     0
  0
BLOCK_RECORD
  5
370
330
1
100
AcDbSymbolTableRecord
100
AcDbBlockTableRecord
  2
e
340
0
102
{BLKREFS
331
3BB
102
}
 70
     0
280
     1
281
     0
  0
ENDTAB
  0
ENDSEC
  0
SECTION
  2
BLOCKS
  0
BLOCK
  5
20
330
1F
100
AcDbEntity
  8
0
100
AcDbBlockBegin
  2
*Model_Space
 70
     0
 10
0.0
 20
0.0
 30
0.0
  3
*Model_Space
  1

  0
ENDBLK
  5
21
330
1F
100
AcDbEntity
  8
0
100
AcDbBlockEnd
  0
BLOCK
  5
1C
330
1B
100
AcDbEntity
 67
     1
  8
0
100
AcDbBlockBegin
  2
*Paper_Space
 70
     0
 10
0.0
 20
0.0
 30
0.0
  3
*Paper_Space
  1

  0
ENDBLK
  5
1D
330
1B
100
AcDbEntity
 67
     1
  8
0
100
AcDbBlockEnd
  0
BLOCK
  5
24
330
23
100
AcDbEntity
  8
0
100
AcDbBlockBegin
  2
*Paper_Space0
 70
     0
 10
0.0
 20
0.0
 30
0.0
  3
*Paper_Space0
  1

  0
ENDBLK
  5
25
330
23
100
AcDbEntity
  8
0
100
AcDbBlockEnd
  0
BLOCK
  5
73
330
72
100
AcDbEntity
  8
0
100
AcDbBlockBegin
  2
_CLOSED
 70
     0
 10
0.0
 20
0.0
 30
0.0
  3
_CLOSED
  1

  0
LINE
  5
75
330
72
100
AcDbEntity
  8
0
  6
ByBlock
 62
     0
370
    -2
100
AcDbLine
 10
-1.0
 20
0.166667
 30
0.0
 11
0.0
 21
0.0
 31
0.0
  0
LINE
  5
76
330
72
100
AcDbEntity
  8
0
  6
ByBlock
 62
     0
370
    -2
100
AcDbLine
 10
0.0
 20
0.0
 30
0.0
 11
-1.0
 21
-0.166667
 31
0.0
  0
LINE
  5
77
330
72
100
AcDbEntity
  8
0
  6
ByBlock
 62
     0
370
    -2
100
AcDbLine
 10
-1.0
 20
0.166667
 30
0.0
 11
-1.0
 21
-0.166667
 31
0.0
  0
LINE
  5
78
330
72
100
AcDbEntity
  8
0
  6
ByBlock
 62
     0
370
    -2
100
AcDbLine
 10
0.0
 20
0.0
 30
0.0
 11
-1.0
 21
0.0
 31
0.0
  0
ENDBLK
  5
74
330
72
100
AcDbEntity
  8
0
100
AcDbBlockEnd
  0
BLOCK
  5
16A
330
7B
100
AcDbEntity
  8
0
100
AcDbBlockBegin
  2
a
 70
     0
 10
89.706009
 20
167.540405
 30
0.0
  3
a
  1

  0
ARC
  5
7C
330
7B
100
AcDbEntity
  8
0
  6
Continuous
 62
     0
370
     0
100
AcDbCircle
 10
156.874077
 20
450.578312
 30
0.0
 40
15.32162671768681
100
AcDbArc
 50
35.727269
 51
87.634185
  0
ARC
  5
7D
330
7B
100
AcDbEntity
  8
0
  6
Continuous
 62
     0
370
     0
100
AcDbCircle
 10
156.874077
 20
450.578312
 30
0.0
 40
15.32162671768681
100
AcDbArc
 50
125.727269
 51
177.634185
  0
ARC
  5
7E
330
7B
100
AcDbEntity
  8
0
  6
Continuous
 62
     0
370
     0
100
AcDbCircle
 10
156.874077
 20
450.578312
 30
0.0
 40
15.32162671768681
100
AcDbArc
 50
215.727269
 51
267.634185
  0
ARC
  5
7F
330
7B
100
AcDbEntity
  8
0
  6
Continuous
 62
     0
370
     0
100
AcDbCircle
 10
156.874077
 20
450.578312
 30
0.0
 40
15.32162671768681
100
AcDbArc
 50
305.727269
 51
357.634185
  0
ARC
  5
80
330
7B
100
AcDbEntity
  8
0
  6
Continuous
 62
     0
370
     0
100
AcDbCircle
 10
156.874077
 20
450.578312
 30
0.0
 40
23.20500521730931
100
AcDbArc
 50
0.0
 51
4.159793
  0
ARC
  5
81
330
7B
100
AcDbEntity
  8
0
  6
Continuous
 62
     0
370
     0
100
AcDbCircle
 10
156.874077
 20
450.578312
 30
0.0
 40
23.20500521730931
100
AcDbArc
 50
29.201661
 51
94.159793
  0
ARC
  5
82
330
7B
100
AcDbEntity
  8
0
  6
Continuous
 62
     0
370
     0
100
AcDbCircle
 10
156.874077
 20
450.578312
 30
0.0
 40
23.20500521730931
100
AcDbArc
 50
119.201661
 51
180.0
  0
ARC
  5
83
330
7B
100
AcDbEntity
  8
0
  6
Continuous
 62
     0
370
     0
100
AcDbCircle
 10
156.874077
 20
450.578312
 30
0.0
 40
23.20500521730931
100
AcDbArc
 50
180.0
 51
184.159793
  0
ARC
  5
84
330
7B
100
AcDbEntity
  8
0
  6
Continuous
 62
     0
370
     0
100
AcDbCircle
 10
156.874077
 20
450.578312
 30
0.0
 40
23.20500521730931
100
AcDbArc
 50
209.201661
 51
274.159793
  0
ARC
  5
85
330
7B
100
AcDbEntity
  8
0
  6
Continuous
 62
     0
370
     0
100
AcDbCircle
 10
156.874077
 20
450.578312
 30
0.0
 40
23.20500521730931
100
AcDbArc
 50
299.201661
 51
0.0
  0
ARC
  5
86
330
7B
100
AcDbEntity
  8
0
  6
Continuous
 62
     0
370
     0
100
AcDbCircle
 10
156.874077
 20
450.578312
 30
0.0
 40
27.32755986930916
100
AcDbArc
 50
0.0
 51
3.576509
  0
ARC
  5
87
330
7B
100
AcDbEntity
  8
0
  6
Continuous
 62
     0
370
     0
100
AcDbCircle
 10
156.874077
 20
450.578312
 30
0.0
 40
27.32755986930916
100
AcDbArc
 50
29.784945
 51
93.576509
  0
ARC
  5
88
330
7B
100
AcDbEntity
  8
0
  6
Continuous
 62
     0
370
     0
100
AcDbCircle
 10
156.874077
 20
450.578312
 30
0.0
 40
27.32755986930916
100
AcDbArc
 50
119.784945
 51
180.0
  0
ARC
  5
89
330
7B
100
AcDbEntity
  8
0
  6
Continuous
 62
     0
370
     0
100
AcDbCircle
 10
156.874077
 20
450.578312
 30
0.0
 40
27.32755986930916
100
AcDbArc
 50
180.0
 51
183.576509
  0
ARC
  5
8A
330
7B
100
AcDbEntity
  8
0
  6
Continuous
 62
     0
370
     0
100
AcDbCircle
 10
156.874077
 20
450.578312
 30
0.0
 40
27.32755986930916
100
AcDbArc
 50
209.784945
 51
273.576509
  0
ARC
  5
8B
330
7B
100
AcDbEntity
  8
0
  6
Continuous
 62
     0
370
     0
100
AcDbCircle
 10
156.874077
 20
450.578312
 30
0.0
 40
27.32755986930916
100
AcDbArc
 50
299.784945
 51
0.0
  0
ARC
  5
8C
330
7B
100
AcDbEntity
  8
0
  6
Continuous
 62
     0
370
     0
100
AcDbCircle
 10
156.874077
 20
450.578312
 30
0.0
 40
30.00436063267573
100
AcDbArc
 50
0.0
 51
1.822543
  0
ARC
  5
8D
330
7B
100
AcDbEntity
  8
0
  6
Continuous
 62
     0
370
     0
100
AcDbCircle
 10
156.874077
 20
450.578312
 30
0.0
 40
30.00436063267573
100
AcDbArc
 50
31.538912
 51
91.822543
  0
ARC
  5
8E
330
7B
100
AcDbEntity
  8
0
  6
Continuous
 62
     0
370
     0
100
AcDbCircle
 10
156.874077
 20
450.578312
 30
0.0
 40
30.00436063267573
100
AcDbArc
 50
121.538912
 51
180.0
  0
ARC
  5
8F
330
7B
100
AcDbEntity
  8
0
  6
Continuous
 62
     0
370
     0
100
AcDbCircle
 10
156.874077
 20
450.578312
 30
0.0
 40
30.00436063267573
100
AcDbArc
 50
180.0
 51
181.822543
  0
ARC
  5
90
330
7B
100
AcDbEntity
  8
0
  6
Continuous
 62
     0
370
     0
100
AcDbCircle
 10
156.874077
 20
450.578312
 30
0.0
 40
30.00436063267573
100
AcDbArc
 50
211.538912
 51
271.822543
  0
ARC
  5
91
330
7B
100
AcDbEntity
  8
0
  6
Continuous
 62
     0
370
     0
100
AcDbCircle
 10
156.874077
 20
450.578312
 30
0.0
 40
30.00436063267573
100
AcDbArc
 50
301.538912
 51
0.0
  0
ARC
  5
92
330
7B
100
AcDbEntity
  8
0
  6
Continuous
 62
     0
370
    30
100
AcDbCircle
 10
156.874077
 20
450.578312
 30
0.0
 40
32.49999999986922
100
AcDbArc
 50
0.0
 51
2.660402
  0
ARC
  5
93
330
7B
100
AcDbEntity
  8
0
  6
Continuous
 62
     0
370
    30
100
AcDbCircle
 10
156.874077
 20
450.578312
 30
0.0
 40
32.49999999986922
100
AcDbArc
 50
30.701052
 51
92.660402
  0
ARC
  5
94
330
7B
100
AcDbEntity
  8
0
  6
Continuous
 62
     0
370
    30
100
AcDbCircle
 10
156.874077
 20
450.578312
 30
0.0
 40
32.49999999986922
100
AcDbArc
 50
120.701052
 51
180.0
  0
ARC
  5
95
330
7B
100
AcDbEntity
  8
0
  6
Continuous
 62
     0
370
    30
100
AcDbCircle
 10
156.874077
 20
450.578312
 30
0.0
 40
32.49999999986922
100
AcDbArc
 50
180.0
 51
182.660402
  0
ARC
  5
96
330
7B
100
AcDbEntity
  8
0
  6
Continuous
 62
     0
370
    30
100
AcDbCircle
 10
156.874077
 20
450.578312
 30
0.0
 40
32.49999999986922
100
AcDbArc
 50
210.701052
 51
272.660402
  0
ARC
  5
97
330
7B
100
AcDbEntity
  8
0
  6
Continuous
 62
     0
370
    30
100
AcDbCircle
 10
156.874077
 20
450.578312
 30
0.0
 40
32.49999999986922
100
AcDbArc
 50
300.701052
 51
0.0
  0
ARC
  5
98
330
7B
100
AcDbEntity
  8
0
  6
Continuous
 62
     0
370
     0
100
AcDbCircle
 10
266.874077
 20
450.578312
 30
0.0
 40
15.32162671768673
100
AcDbArc
 50
35.727269
 51
177.634185
  0
ARC
  5
99
330
7B
100
AcDbEntity
  8
0
  6
Continuous
 62
     0
370
     0
100
AcDbCircle
 10
266.874077
 20
450.578312
 30
0.0
 40
15.32162671768673
100
AcDbArc
 50
215.727269
 51
357.634185
  0
ARC
  5
9A
330
7B
100
AcDbEntity
  8
0
  6
Continuous
 62
     0
370
     0
100
AcDbCircle
 10
266.874077
 20
450.578312
 30
0.0
 40
23.20500521730908
100
AcDbArc
 50
0.0
 51
4.159793
  0
ARC
  5
9B
330
7B
100
AcDbEntity
  8
0
  6
Continuous
 62
     0
370
     0
100
AcDbCircle
 10
266.874077
 20
450.578312
 30
0.0
 40
23.20500521730908
100
AcDbArc
 50
29.201661
 51
180.0
  0
ARC
  5
9C
330
7B
100
AcDbEntity
  8
0
  6
Continuous
 62
     0
370
     0
100
AcDbCircle
 10
266.874077
 20
450.578312
 30
0.0
 40
23.20500521730908
100
AcDbArc
 50
180.0
 51
184.159793
  0
ARC
  5
9D
330
7B
100
AcDbEntity
  8
0
  6
Continuous
 62
     0
370
     0
100
AcDbCircle
 10
266.874077
 20
450.578312
 30
0.0
 40
23.20500521730908
100
AcDbArc
 50
209.201661
 51
0.0
  0
ARC
  5
9E
330
7B
100
AcDbEntity
  8
0
  6
Continuous
 62
     0
370
     0
100
AcDbCircle
 10
266.874077
 20
450.578312
 30
0.0
 40
27.32755986930918
100
AcDbArc
 50
0.0
 51
3.576509
  0
ARC
  5
9F
330
7B
100
AcDbEntity
  8
0
  6
Continuous
 62
     0
370
     0
100
AcDbCircle
 10
266.874077
 20
450.578312
 30
0.0
 40
27.32755986930918
100
AcDbArc
 50
29.784945
 51
180.0
  0
ARC
  5
A0
330
7B
100
AcDbEntity
  8
0
  6
Continuous
 62
     0
370
     0
100
AcDbCircle
 10
266.874077
 20
450.578312
 30
0.0
 40
27.32755986930918
100
AcDbArc
 50
180.0
 51
183.576509
  0
ARC
  5
A1
330
7B
100
AcDbEntity
  8
0
  6
Continuous
 62
     0
370
     0
100
AcDbCircle
 10
266.874077
 20
450.578312
 30
0.0
 40
27.32755986930918
100
AcDbArc
 50
209.784945
 51
0.0
  0
ARC
  5
A2
330
7B
100
AcDbEntity
  8
0
  6
Continuous
 62
     0
370
     0
100
AcDbCircle
 10
266.874077
 20
450.578312
 30
0.0
 40
30.00436063267613
100
AcDbArc
 50
0.0
 51
1.822543
  0
ARC
  5
A3
330
7B
100
AcDbEntity
  8
0
  6
Continuous
 62
     0
370
     0
100
AcDbCircle
 10
266.874077
 20
450.578312
 30
0.0
 40
30.00436063267613
100
AcDbArc
 50
31.538912
 51
180.0
  0
ARC
  5
A4
330
7B
100
AcDbEntity
  8
0
  6
Continuous
 62
     0
370
     0
100
AcDbCircle
 10
266.874077
 20
450.578312
 30
0.0
 40
30.00436063267613
100
AcDbArc
 50
180.0
 51
181.822543
  0
ARC
  5
A5
330
7B
100
AcDbEntity
  8
0
  6
Continuous
 62
     0
370
     0
100
AcDbCircle
 10
266.874077
 20
450.578312
 30
0.0
 40
30.00436063267613
100
AcDbArc
 50
211.538912
 51
0.0
  0
ARC
  5
A6
330
7B
100
AcDbEntity
  8
0
  6
Continuous
 62
     0
370
    30
100
AcDbCircle
 10
266.874077
 20
450.578312
 30
0.0
 40
32.49999999986906
100
AcDbArc
 50
0.0
 51
2.660402
  0
ARC
  5
A7
330
7B
100
AcDbEntity
  8
0
  6
Continuous
 62
     0
370
    30
100
AcDbCircle
 10
266.874077
 20
450.578312
 30
0.0
 40
32.49999999986906
100
AcDbArc
 50
30.701052
 51
180.0
  0
ARC
  5
A8
330
7B
100
AcDbEntity
  8
0
  6
Continuous
 62
     0
370
    30
100
AcDbCircle
 10
266.874077
 20
450.578312
 30
0.0
 40
32.49999999986906
100
AcDbArc
 50
180.0
 51
182.660402
  0
ARC
  5
A9
330
7B
100
AcDbEntity
  8
0
  6
Continuous
 62
     0
370
    30
100
AcDbCircle
 10
266.874077
 20
450.578312
 30
0.0
 40
32.49999999986906
100
AcDbArc
 50
210.701052
 51
0.0
  0
ARC
  5
AA
330
7B
100
AcDbEntity
  8
0
  6
Continuous
 62
     0
370
     0
100
AcDbCircle
 10
376.874077
 20
450.578312
 30
0.0
 40
15.3216267176287
100
AcDbArc
 50
35.727269
 51
87.634185
  0
ARC
  5
AB
330
7B
100
AcDbEntity
  8
0
  6
Continuous
 62
     0
370
     0
100
AcDbCircle
 10
376.874077
 20
450.578312
 30
0.0
 40
15.3216267176287
100
AcDbArc
 50
125.727269
 51
177.634185
  0
ARC
  5
AC
330
7B
100
AcDbEntity
  8
0
  6
Continuous
 62
     0
370
     0
100
AcDbCircle
 10
376.874077
 20
450.578312
 30
0.0
 40
15.3216267176287
100
AcDbArc
 50
215.727269
 51
267.634185
  0
ARC
  5
AD
330
7B
100
AcDbEntity
  8
0
  6
Continuous
 62
     0
370
     0
100
AcDbCircle
 10
376.874077
 20
450.578312
 30
0.0
 40
15.3216267176287
100
AcDbArc
 50
305.727269
 51
357.634185
  0
ARC
  5
AE
330
7B
100
AcDbEntity
  8
0
  6
Continuous
 62
     0
370
     0
100
AcDbCircle
 10
376.874077
 20
450.578312
 30
0.0
 40
23.20500521730943
100
AcDbArc
 50
0.0
 51
4.159793
  0
ARC
  5
AF
330
7B
100
AcDbEntity
  8
0
  6
Continuous
 62
     0
370
     0
100
AcDbCircle
 10
376.874077
 20
450.578312
 30
0.0
 40
23.20500521730943
100
AcDbArc
 50
29.201661
 51
94.159793
  0
ARC
  5
B0
330
7B
100
AcDbEntity
  8
0
  6
Continuous
 62
     0
370
     0
100
AcDbCircle
 10
376.874077
 20
450.578312
 30
0.0
 40
23.20500521730943
100
AcDbArc
 50
119.201661
 51
180.0
  0
ARC
  5
B1
330
7B
100
AcDbEntity
  8
0
  6
Continuous
 62
     0
370
     0
100
AcDbCircle
 10
376.874077
 20
450.578312
 30
0.0
 40
23.20500521730943
100
AcDbArc
 50
180.0
 51
184.159793
  0
ARC
  5
B2
330
7B
100
AcDbEntity
  8
0
  6
Continuous
 62
     0
370
     0
100
AcDbCircle
 10
376.874077
 20
450.578312
 30
0.0
 40
23.20500521730943
100
AcDbArc
 50
209.201661
 51
274.159793
  0
ARC
  5
B3
330
7B
100
AcDbEntity
  8
0
  6
Continuous
 62
     0
370
     0
100
AcDbCircle
 10
376.874077
 20
450.578312
 30
0.0
 40
23.20500521730943
100
AcDbArc
 50
299.201661
 51
0.0
  0
ARC
  5
B4
330
7B
100
AcDbEntity
  8
0
  6
Continuous
 62
     0
370
     0
100
AcDbCircle
 10
376.874077
 20
450.578312
 30
0.0
 40
27.32755986930936
100
AcDbArc
 50
0.0
 51
3.576509
  0
ARC
  5
B5
330
7B
100
AcDbEntity
  8
0
  6
Continuous
 62
     0
370
     0
100
AcDbCircle
 10
376.874077
 20
450.578312
 30
0.0
 40
27.32755986930936
100
AcDbArc
 50
29.784945
 51
93.576509
  0
ARC
  5
B6
330
7B
100
AcDbEntity
  8
0
  6
Continuous
 62
     0
370
     0
100
AcDbCircle
 10
376.874077
 20
450.578312
 30
0.0
 40
27.32755986930936
100
AcDbArc
 50
119.784945
 51
180.0
  0
ARC
  5
B7
330
7B
100
AcDbEntity
  8
0
  6
Continuous
 62
     0
370
     0
100
AcDbCircle
 10
376.874077
 20
450.578312
 30
0.0
 40
27.32755986930936
100
AcDbArc
 50
180.0
 51
183.576509
  0
ARC
  5
B8
330
7B
100
AcDbEntity
  8
0
  6
Continuous
 62
     0
370
     0
100
AcDbCircle
 10
376.874077
 20
450.578312
 30
0.0
 40
27.32755986930936
100
AcDbArc
 50
209.784945
 51
273.576509
  0
ARC
  5
B9
330
7B
100
AcDbEntity
  8
0
  6
Continuous
 62
     0
370
     0
100
AcDbCircle
 10
376.874077
 20
450.578312
 30
0.0
 40
27.32755986930936
100
AcDbArc
 50
299.784945
 51
0.0
  0
ARC
  5
BA
330
7B
100
AcDbEntity
  8
0
  6
Continuous
 62
     0
370
     0
100
AcDbCircle
 10
376.874077
 20
450.578312
 30
0.0
 40
30.00436063267561
100
AcDbArc
 50
0.0
 51
1.822543
  0
ARC
  5
BB
330
7B
100
AcDbEntity
  8
0
  6
Continuous
 62
     0
370
     0
100
AcDbCircle
 10
376.874077
 20
450.578312
 30
0.0
 40
30.00436063267561
100
AcDbArc
 50
31.538912
 51
91.822543
  0
ARC
  5
BC
330
7B
100
AcDbEntity
  8
0
  6
Continuous
 62
     0
370
     0
100
AcDbCircle
 10
376.874077
 20
450.578312
 30
0.0
 40
30.00436063267561
100
AcDbArc
 50
121.538912
 51
180.0
  0
ARC
  5
BD
330
7B
100
AcDbEntity
  8
0
  6
Continuous
 62
     0
370
     0
100
AcDbCircle
 10
376.874077
 20
450.578312
 30
0.0
 40
30.00436063267561
100
AcDbArc
 50
180.0
 51
181.822543
  0
ARC
  5
BE
330
7B
100
AcDbEntity
  8
0
  6
Continuous
 62
     0
370
     0
100
AcDbCircle
 10
376.874077
 20
450.578312
 30
0.0
 40
30.00436063267561
100
AcDbArc
 50
211.538912
 51
271.822543
  0
ARC
  5
BF
330
7B
100
AcDbEntity
  8
0
  6
Continuous
 62
     0
370
     0
100
AcDbCircle
 10
376.874077
 20
450.578312
 30
0.0
 40
30.00436063267561
100
AcDbArc
 50
301.538912
 51
0.0
  0
ARC
  5
C0
330
7B
100
AcDbEntity
  8
0
  6
Continuous
 62
     0
370
    30
100
AcDbCircle
 10
376.874077
 20
450.578312
 30
0.0
 40
32.49999999987168
100
AcDbArc
 50
0.0
 51
2.660402
  0
ARC
  5
C1
330
7B
100
AcDbEntity
  8
0
  6
Continuous
 62
     0
370
    30
100
AcDbCircle
 10
376.874077
 20
450.578312
 30
0.0
 40
32.49999999987168
100
AcDbArc
 50
30.701052
 51
92.660402
  0
ARC
  5
C2
330
7B
100
AcDbEntity
  8
0
  6
Continuous
 62
     0
370
    30
100
AcDbCircle
 10
376.874077
 20
450.578312
 30
0.0
 40
32.49999999987168
100
AcDbArc
 50
120.701052
 51
180.0
  0
ARC
  5
C3
330
7B
100
AcDbEntity
  8
0
  6
Continuous
 62
     0
370
    30
100
AcDbCircle
 10
376.874077
 20
450.578312
 30
0.0
 40
32.49999999987168
100
AcDbArc
 50
180.0
 51
182.660402
  0
ARC
  5
C4
330
7B
100
AcDbEntity
  8
0
  6
Continuous
 62
     0
370
    30
100
AcDbCircle
 10
376.874077
 20
450.578312
 30
0.0
 40
32.49999999987168
100
AcDbArc
 50
210.701052
 51
272.660402
  0
ARC
  5
C5
330
7B
100
AcDbEntity
  8
0
  6
Continuous
 62
     0
370
    30
100
AcDbCircle
 10
376.874077
 20
450.578312
 30
0.0
 40
32.49999999987168
100
AcDbArc
 50
300.701052
 51
0.0
  0
LINE
  5
C6
330
7B
100
AcDbEntity
  8
0
  6
Continuous
 62
     0
370
     0
100
AcDbLine
 10
396.392733
 20
461.646681
 30
0.0
 11
397.827925
 21
456.857086
 31
0.0
  0
LINE
  5
C7
330
7B
100
AcDbEntity
  8
0
  6
Continuous
 62
     0
370
     0
100
AcDbLine
 10
397.827925
 20
456.857086
 30
0.0
 11
399.263116
 21
452.06749
 31
0.0
  0
LINE
  5
C8
330
7B
100
AcDbEntity
  8
0
  6
Continuous
 62
     0
370
     0
100
AcDbLine
 10
401.703239
 20
465.474954
 30
0.0
 11
403.753512
 21
458.632675
 31
0.0
  0
LINE
  5
C9
330
7B
100
AcDbEntity
  8
0
  6
Continuous
 62
     0
370
     0
100
AcDbLine
 10
403.753512
 20
458.632675
 30
0.0
 11
405.803786
 21
451.790395
 31
0.0
  0
LINE
  5
CA
330
7B
100
AcDbEntity
  8
0
  6
Continuous
 62
     0
370
     0
100
AcDbLine
 10
407.463979
 20
466.30635
 30
0.0
 11
409.26822
 21
460.285144
 31
0.0
  0
LINE
  5
CB
330
7B
100
AcDbEntity
  8
0
  6
Continuous
 62
     0
370
     0
100
AcDbLine
 10
409.26822
 20
460.285144
 30
0.0
 11
411.07246
 21
454.263939
 31
0.0
  0
LINE
  5
CC
330
7B
100
AcDbEntity
  8
0
  6
Continuous
 62
     0
370
     0
100
AcDbLine
 10
365.805708
 20
470.096968
 30
0.0
 11
370.595303
 21
471.53216
 31
0.0
  0
LINE
  5
CD
330
7B
100
AcDbEntity
  8
0
  6
Continuous
 62
     0
370
     0
100
AcDbLine
 10
370.595303
 20
471.53216
 30
0.0
 11
375.384899
 21
472.967351
 31
0.0
  0
LINE
  5
CE
330
7B
100
AcDbEntity
  8
0
  6
Continuous
 62
     0
370
     0
100
AcDbLine
 10
361.977435
 20
475.407474
 30
0.0
 11
368.819714
 21
477.457747
 31
0.0
  0
LINE
  5
CF
330
7B
100
AcDbEntity
  8
0
  6
Continuous
 62
     0
370
     0
100
AcDbLine
 10
368.819714
 20
477.457747
 30
0.0
 11
375.661993
 21
479.508021
 31
0.0
  0
LINE
  5
D0
330
7B
100
AcDbEntity
  8
0
  6
Continuous
 62
     0
370
     0
100
AcDbLine
 10
361.146039
 20
481.168214
 30
0.0
 11
367.167244
 21
482.972455
 31
0.0
  0
LINE
  5
D1
330
7B
100
AcDbEntity
  8
0
  6
Continuous
 62
     0
370
     0
100
AcDbLine
 10
367.167244
 20
482.972455
 30
0.0
 11
373.18845
 21
484.776696
 31
0.0
  0
LINE
  5
D2
330
7B
100
AcDbEntity
  8
0
  6
Continuous
 62
     0
370
     0
100
AcDbLine
 10
357.355421
 20
439.509943
 30
0.0
 11
355.920229
 21
444.299538
 31
0.0
  0
LINE
  5
D3
330
7B
100
AcDbEntity
  8
0
  6
Continuous
 62
     0
370
     0
100
AcDbLine
 10
355.920229
 20
444.299538
 30
0.0
 11
354.485037
 21
449.089134
 31
0.0
  0
LINE
  5
D4
330
7B
100
AcDbEntity
  8
0
  6
Continuous
 62
     0
370
     0
100
AcDbLine
 10
352.044915
 20
435.68167
 30
0.0
 11
349.994641
 21
442.523949
 31
0.0
  0
LINE
  5
D5
330
7B
100
AcDbEntity
  8
0
  6
Continuous
 62
     0
370
     0
100
AcDbLine
 10
349.994641
 20
442.523949
 30
0.0
 11
347.944368
 21
449.366228
 31
0.0
  0
LINE
  5
D6
330
7B
100
AcDbEntity
  8
0
  6
Continuous
 62
     0
370
     0
100
AcDbLine
 10
346.284175
 20
434.850274
 30
0.0
 11
344.479934
 21
440.871479
 31
0.0
  0
LINE
  5
D7
330
7B
100
AcDbEntity
  8
0
  6
Continuous
 62
     0
370
     0
100
AcDbLine
 10
344.479934
 20
440.871479
 30
0.0
 11
342.675693
 21
446.892685
 31
0.0
  0
LINE
  5
D8
330
7B
100
AcDbEntity
  8
0
  6
Continuous
 62
     0
370
     0
100
AcDbLine
 10
387.942446
 20
431.059656
 30
0.0
 11
383.15285
 21
429.624464
 31
0.0
  0
LINE
  5
D9
330
7B
100
AcDbEntity
  8
0
  6
Continuous
 62
     0
370
     0
100
AcDbLine
 10
383.15285
 20
429.624464
 30
0.0
 11
378.363255
 21
428.189273
 31
0.0
  0
LINE
  5
DA
330
7B
100
AcDbEntity
  8
0
  6
Continuous
 62
     0
370
     0
100
AcDbLine
 10
391.770719
 20
425.74915
 30
0.0
 11
384.92844
 21
423.698876
 31
0.0
  0
LINE
  5
DB
330
7B
100
AcDbEntity
  8
0
  6
Continuous
 62
     0
370
     0
100
AcDbLine
 10
384.92844
 20
423.698876
 30
0.0
 11
378.08616
 21
421.648603
 31
0.0
  0
LINE
  5
DC
330
7B
100
AcDbEntity
  8
0
  6
Continuous
 62
     0
370
     0
100
AcDbLine
 10
392.602115
 20
419.98841
 30
0.0
 11
386.580909
 21
418.184169
 31
0.0
  0
LINE
  5
DD
330
7B
100
AcDbEntity
  8
0
  6
Continuous
 62
     0
370
     0
100
AcDbLine
 10
386.580909
 20
418.184169
 30
0.0
 11
380.559703
 21
416.379928
 31
0.0
  0
ARC
  5
DE
330
7B
100
AcDbEntity
  8
0
  6
Continuous
 62
     0
370
    30
100
AcDbCircle
 10
376.874077
 20
450.578312
 30
0.0
 40
13.00000326245959
100
AcDbArc
 50
105.649379
 51
285.649379
  0
ARC
  5
DF
330
7B
100
AcDbEntity
  8
0
  6
Continuous
 62
     0
370
    30
100
AcDbCircle
 10
376.874077
 20
450.578312
 30
0.0
 40
13.00000326245959
100
AcDbArc
 50
285.649379
 51
105.649379
  0
ARC
  5
E0
330
7B
100
AcDbEntity
  8
0
  6
Continuous
 62
     0
370
     0
100
AcDbCircle
 10
376.874077
 20
450.578312
 30
0.0
 40
8.000003262459582
100
AcDbArc
 50
285.649379
 51
105.649379
  0
ARC
  5
E1
330
7B
100
AcDbEntity
  8
0
  6
Continuous
 62
     0
370
     0
100
AcDbCircle
 10
376.874077
 20
450.578312
 30
0.0
 40
8.000003262459582
100
AcDbArc
 50
105.649379
 51
285.649379
  0
ARC
  5
E2
330
7B
100
AcDbEntity
  8
0
  6
Continuous
 62
     0
370
    30
100
AcDbCircle
 10
376.874077
 20
450.578312
 30
0.0
 40
7.100003262459607
100
AcDbArc
 50
285.649379
 51
105.649379
  0
ARC
  5
E3
330
7B
100
AcDbEntity
  8
0
  6
Continuous
 62
     0
370
    30
100
AcDbCircle
 10
376.874077
 20
450.578312
 30
0.0
 40
7.100003262459607
100
AcDbArc
 50
105.649379
 51
285.649379
  0
ARC
  5
E4
330
7B
100
AcDbEntity
  8
0
  6
Continuous
 62
     0
370
    30
100
AcDbCircle
 10
376.874077
 20
450.578312
 30
0.0
 40
7.0
100
AcDbArc
 50
106.680727
 51
286.680727
  0
ARC
  5
E5
330
7B
100
AcDbEntity
  8
0
  6
Continuous
 62
     0
370
    30
100
AcDbCircle
 10
376.874077
 20
450.578312
 30
0.0
 40
7.0
100
AcDbArc
 50
286.680727
 51
106.680727
  0
ARC
  5
E6
330
7B
100
AcDbEntity
  8
0
  6
Continuous
 62
     0
370
    30
100
AcDbCircle
 10
383.98814
 20
426.833868
 30
0.0
 40
11.00276646588918
100
AcDbArc
 50
286.68868
 51
321.526111
  0
ARC
  5
E7
330
7B
100
AcDbEntity
  8
0
  6
Continuous
 62
     0
370
    30
100
AcDbCircle
 10
383.989803
 20
426.834367
 30
0.0
 40
11.00276646589846
100
AcDbArc
 50
251.835344
 51
286.672775
  0
ARC
  5
E8
330
7B
100
AcDbEntity
  8
0
  6
Continuous
 62
     0
370
    30
100
AcDbCircle
 10
381.807267
 20
420.180614
 30
0.0
 40
4.000203289055376
100
AcDbArc
 50
158.470604
 51
251.827735
  0
ARC
  5
E9
330
7B
100
AcDbEntity
  8
0
  6
Continuous
 62
     0
370
    30
100
AcDbCircle
 10
389.470058
 20
422.476752
 30
0.0
 40
4.000203289056134
100
AcDbArc
 50
321.53372
 51
54.89085
  0
ARC
  5
EA
330
7B
100
AcDbEntity
  8
0
  6
Continuous
 62
     0
370
    30
100
AcDbCircle
 10
368.780896
 20
425.319024
 30
0.0
 40
10.002996545986
100
AcDbArc
 50
338.473462
 51
16.674782
  0
ARC
  5
EB
330
7B
100
AcDbEntity
  8
0
  6
Continuous
 62
     0
370
    30
100
AcDbCircle
 10
397.524209
 20
433.931893
 30
0.0
 40
10.00299654598461
100
AcDbArc
 50
196.686673
 51
234.887992
  0
LINE
  5
EC
330
7B
100
AcDbEntity
  8
0
  6
Continuous
 62
     0
370
    30
100
AcDbLine
 10
375.525932
 20
437.658134
 30
0.0
 11
378.363255
 21
428.189273
 31
0.0
  0
LINE
  5
ED
330
7B
100
AcDbEntity
  8
0
  6
Continuous
 62
     0
370
    30
100
AcDbLine
 10
385.105123
 20
440.528518
 30
0.0
 11
387.942446
 21
431.059656
 31
0.0
  0
ARC
  5
EE
330
7B
100
AcDbEntity
  8
0
  6
Continuous
 62
     0
370
    30
100
AcDbCircle
 10
353.129633
 20
443.464249
 30
0.0
 40
11.00276646573448
100
AcDbArc
 50
196.68868
 51
231.526111
  0
ARC
  5
EF
330
7B
100
AcDbEntity
  8
0
  6
Continuous
 62
     0
370
    30
100
AcDbCircle
 10
353.130132
 20
443.462585
 30
0.0
 40
11.00276646453845
100
AcDbArc
 50
161.835344
 51
196.672775
  0
ARC
  5
F0
330
7B
100
AcDbEntity
  8
0
  6
Continuous
 62
     0
370
    30
100
AcDbCircle
 10
346.476379
 20
445.645122
 30
0.0
 40
4.000203289056141
100
AcDbArc
 50
68.470604
 51
161.827735
  0
ARC
  5
F1
330
7B
100
AcDbEntity
  8
0
  6
Continuous
 62
     0
370
    30
100
AcDbCircle
 10
348.772517
 20
437.98233
 30
0.0
 40
4.00020328905563
100
AcDbArc
 50
231.53372
 51
324.89085
  0
ARC
  5
F2
330
7B
100
AcDbEntity
  8
0
  6
Continuous
 62
     0
370
    30
100
AcDbCircle
 10
351.614789
 20
458.671493
 30
0.0
 40
10.00299654598674
100
AcDbArc
 50
248.473462
 51
286.674782
  0
ARC
  5
F3
330
7B
100
AcDbEntity
  8
0
  6
Continuous
 62
     0
370
    30
100
AcDbCircle
 10
360.227658
 20
429.928179
 30
0.0
 40
10.00299654598613
100
AcDbArc
 50
106.686673
 51
144.887992
  0
LINE
  5
F4
330
7B
100
AcDbEntity
  8
0
  6
Continuous
 62
     0
370
    30
100
AcDbLine
 10
363.953899
 20
451.926457
 30
0.0
 11
354.485037
 21
449.089134
 31
0.0
  0
LINE
  5
F5
330
7B
100
AcDbEntity
  8
0
  6
Continuous
 62
     0
370
    30
100
AcDbLine
 10
366.824282
 20
442.347266
 30
0.0
 11
357.355421
 21
439.509943
 31
0.0
  0
ARC
  5
F6
330
7B
100
AcDbEntity
  8
0
  6
Continuous
 62
     0
370
    30
100
AcDbCircle
 10
369.760014
 20
474.322755
 30
0.0
 40
11.00276646502712
100
AcDbArc
 50
106.68868
 51
141.526111
  0
ARC
  5
F7
330
7B
100
AcDbEntity
  8
0
  6
Continuous
 62
     0
370
    30
100
AcDbCircle
 10
369.75835
 20
474.322257
 30
0.0
 40
11.00276646618593
100
AcDbArc
 50
71.835344
 51
106.672775
  0
ARC
  5
F8
330
7B
100
AcDbEntity
  8
0
  6
Continuous
 62
     0
370
    30
100
AcDbCircle
 10
371.940887
 20
480.97601
 30
0.0
 40
4.000203289055717
100
AcDbArc
 50
338.470604
 51
71.827735
  0
ARC
  5
F9
330
7B
100
AcDbEntity
  8
0
  6
Continuous
 62
     0
370
    30
100
AcDbCircle
 10
364.278095
 20
478.679872
 30
0.0
 40
4.00020328905603
100
AcDbArc
 50
141.53372
 51
234.89085
  0
ARC
  5
FA
330
7B
100
AcDbEntity
  8
0
  6
Continuous
 62
     0
370
    30
100
AcDbCircle
 10
384.967258
 20
475.8376
 30
0.0
 40
10.00299654598598
100
AcDbArc
 50
158.473462
 51
196.674782
  0
ARC
  5
FB
330
7B
100
AcDbEntity
  8
0
  6
Continuous
 62
     0
370
    30
100
AcDbCircle
 10
356.223944
 20
467.224731
 30
0.0
 40
10.00299654598754
100
AcDbArc
 50
16.686673
 51
54.887992
  0
LINE
  5
FC
330
7B
100
AcDbEntity
  8
0
  6
Continuous
 62
     0
370
    30
100
AcDbLine
 10
378.222222
 20
463.498489
 30
0.0
 11
375.384899
 21
472.967351
 31
0.0
  0
LINE
  5
FD
330
7B
100
AcDbEntity
  8
0
  6
Continuous
 62
     0
370
    30
100
AcDbLine
 10
368.643031
 20
460.628106
 30
0.0
 11
365.805708
 21
470.096968
 31
0.0
  0
ARC
  5
FE
330
7B
100
AcDbEntity
  8
0
  6
Continuous
 62
     0
370
    30
100
AcDbCircle
 10
400.61852
 20
457.692375
 30
0.0
 40
11.00276646638462
100
AcDbArc
 50
16.68868
 51
51.526111
  0
ARC
  5
FF
330
7B
100
AcDbEntity
  8
0
  6
Continuous
 62
     0
370
    30
100
AcDbCircle
 10
400.618022
 20
457.694038
 30
0.0
 40
11.00276646621257
100
AcDbArc
 50
341.835344
 51
16.672775
  0
ARC
  5
100
330
7B
100
AcDbEntity
  8
0
  6
Continuous
 62
     0
370
    30
100
AcDbCircle
 10
407.271775
 20
455.511502
 30
0.0
 40
4.000203289055247
100
AcDbArc
 50
248.470604
 51
341.827735
  0
ARC
  5
101
330
7B
100
AcDbEntity
  8
0
  6
Continuous
 62
     0
370
    30
100
AcDbCircle
 10
404.975636
 20
463.174293
 30
0.0
 40
4.000203289055916
100
AcDbArc
 50
51.53372
 51
144.89085
  0
ARC
  5
102
330
7B
100
AcDbEntity
  8
0
  6
Continuous
 62
     0
370
    30
100
AcDbCircle
 10
402.133365
 20
442.485131
 30
0.0
 40
10.00299654598717
100
AcDbArc
 50
68.473462
 51
106.674782
  0
ARC
  5
103
330
7B
100
AcDbEntity
  8
0
  6
Continuous
 62
     0
370
    30
100
AcDbCircle
 10
393.520495
 20
471.228445
 30
0.0
 40
10.00299654598451
100
AcDbArc
 50
286.686673
 51
324.887992
  0
LINE
  5
104
330
7B
100
AcDbEntity
  8
0
  6
Continuous
 62
     0
370
    30
100
AcDbLine
 10
389.794254
 20
449.230167
 30
0.0
 11
399.263116
 21
452.06749
 31
0.0
  0
LINE
  5
105
330
7B
100
AcDbEntity
  8
0
  6
Continuous
 62
     0
370
    30
100
AcDbLine
 10
386.923871
 20
458.809358
 30
0.0
 11
396.392733
 21
461.646681
 31
0.0
  0
LINE
  5
106
330
7B
100
AcDbEntity
  8
0
  6
Continuous
 62
     0
370
     0
100
AcDbLine
 10
176.392733
 20
461.646681
 30
0.0
 11
177.827925
 21
456.857086
 31
0.0
  0
LINE
  5
107
330
7B
100
AcDbEntity
  8
0
  6
Continuous
 62
     0
370
     0
100
AcDbLine
 10
177.827925
 20
456.857086
 30
0.0
 11
179.263116
 21
452.06749
 31
0.0
  0
LINE
  5
108
330
7B
100
AcDbEntity
  8
0
  6
Continuous
 62
     0
370
     0
100
AcDbLine
 10
181.703239
 20
465.474954
 30
0.0
 11
183.753512
 21
458.632675
 31
0.0
  0
LINE
  5
109
330
7B
100
AcDbEntity
  8
0
  6
Continuous
 62
     0
370
     0
100
AcDbLine
 10
183.753512
 20
458.632675
 30
0.0
 11
185.803786
 21
451.790395
 31
0.0
  0
LINE
  5
10A
330
7B
100
AcDbEntity
  8
0
  6
Continuous
 62
     0
370
     0
100
AcDbLine
 10
187.463979
 20
466.30635
 30
0.0
 11
189.26822
 21
460.285144
 31
0.0
  0
LINE
  5
10B
330
7B
100
AcDbEntity
  8
0
  6
Continuous
 62
     0
370
     0
100
AcDbLine
 10
189.26822
 20
460.285144
 30
0.0
 11
191.07246
 21
454.263939
 31
0.0
  0
LINE
  5
10C
330
7B
100
AcDbEntity
  8
0
  6
Continuous
 62
     0
370
     0
100
AcDbLine
 10
145.805708
 20
470.096968
 30
0.0
 11
150.595303
 21
471.53216
 31
0.0
  0
LINE
  5
10D
330
7B
100
AcDbEntity
  8
0
  6
Continuous
 62
     0
370
     0
100
AcDbLine
 10
150.595303
 20
471.53216
 30
0.0
 11
155.384899
 21
472.967351
 31
0.0
  0
LINE
  5
10E
330
7B
100
AcDbEntity
  8
0
  6
Continuous
 62
     0
370
     0
100
AcDbLine
 10
141.977435
 20
475.407474
 30
0.0
 11
148.819714
 21
477.457747
 31
0.0
  0
LINE
  5
10F
330
7B
100
AcDbEntity
  8
0
  6
Continuous
 62
     0
370
     0
100
AcDbLine
 10
148.819714
 20
477.457747
 30
0.0
 11
155.661993
 21
479.508021
 31
0.0
  0
LINE
  5
110
330
7B
100
AcDbEntity
  8
0
  6
Continuous
 62
     0
370
     0
100
AcDbLine
 10
141.146039
 20
481.168214
 30
0.0
 11
147.167244
 21
482.972455
 31
0.0
  0
LINE
  5
111
330
7B
100
AcDbEntity
  8
0
  6
Continuous
 62
     0
370
     0
100
AcDbLine
 10
147.167244
 20
482.972455
 30
0.0
 11
153.18845
 21
484.776696
 31
0.0
  0
LINE
  5
112
330
7B
100
AcDbEntity
  8
0
  6
Continuous
 62
     0
370
     0
100
AcDbLine
 10
137.355421
 20
439.509943
 30
0.0
 11
135.920229
 21
444.299538
 31
0.0
  0
LINE
  5
113
330
7B
100
AcDbEntity
  8
0
  6
Continuous
 62
     0
370
     0
100
AcDbLine
 10
135.920229
 20
444.299538
 30
0.0
 11
134.485037
 21
449.089134
 31
0.0
  0
LINE
  5
114
330
7B
100
AcDbEntity
  8
0
  6
Continuous
 62
     0
370
     0
100
AcDbLine
 10
132.044915
 20
435.68167
 30
0.0
 11
129.994641
 21
442.523949
 31
0.0
  0
LINE
  5
115
330
7B
100
AcDbEntity
  8
0
  6
Continuous
 62
     0
370
     0
100
AcDbLine
 10
129.994641
 20
442.523949
 30
0.0
 11
127.944368
 21
449.366228
 31
0.0
  0
LINE
  5
116
330
7B
100
AcDbEntity
  8
0
  6
Continuous
 62
     0
370
     0
100
AcDbLine
 10
126.284175
 20
434.850274
 30
0.0
 11
124.479934
 21
440.871479
 31
0.0
  0
LINE
  5
117
330
7B
100
AcDbEntity
  8
0
  6
Continuous
 62
     0
370
     0
100
AcDbLine
 10
124.479934
 20
440.871479
 30
0.0
 11
122.675693
 21
446.892685
 31
0.0
  0
LINE
  5
118
330
7B
100
AcDbEntity
  8
0
  6
Continuous
 62
     0
370
     0
100
AcDbLine
 10
167.942446
 20
431.059656
 30
0.0
 11
163.15285
 21
429.624464
 31
0.0
  0
LINE
  5
119
330
7B
100
AcDbEntity
  8
0
  6
Continuous
 62
     0
370
     0
100
AcDbLine
 10
163.15285
 20
429.624464
 30
0.0
 11
158.363255
 21
428.189273
 31
0.0
  0
LINE
  5
11A
330
7B
100
AcDbEntity
  8
0
  6
Continuous
 62
     0
370
     0
100
AcDbLine
 10
171.770719
 20
425.74915
 30
0.0
 11
164.92844
 21
423.698876
 31
0.0
  0
LINE
  5
11B
330
7B
100
AcDbEntity
  8
0
  6
Continuous
 62
     0
370
     0
100
AcDbLine
 10
164.92844
 20
423.698876
 30
0.0
 11
158.08616
 21
421.648603
 31
0.0
  0
LINE
  5
11C
330
7B
100
AcDbEntity
  8
0
  6
Continuous
 62
     0
370
     0
100
AcDbLine
 10
172.602115
 20
419.98841
 30
0.0
 11
166.580909
 21
418.184169
 31
0.0
  0
LINE
  5
11D
330
7B
100
AcDbEntity
  8
0
  6
Continuous
 62
     0
370
     0
100
AcDbLine
 10
166.580909
 20
418.184169
 30
0.0
 11
160.559703
 21
416.379928
 31
0.0
  0
ARC
  5
11E
330
7B
100
AcDbEntity
  8
0
  6
Continuous
 62
     0
370
    30
100
AcDbCircle
 10
156.874077
 20
450.578312
 30
0.0
 40
13.00000326245959
100
AcDbArc
 50
105.649379
 51
285.649379
  0
ARC
  5
11F
330
7B
100
AcDbEntity
  8
0
  6
Continuous
 62
     0
370
    30
100
AcDbCircle
 10
156.874077
 20
450.578312
 30
0.0
 40
13.00000326245959
100
AcDbArc
 50
285.649379
 51
105.649379
  0
ARC
  5
120
330
7B
100
AcDbEntity
  8
0
  6
Continuous
 62
     0
370
     0
100
AcDbCircle
 10
156.874077
 20
450.578312
 30
0.0
 40
8.000003262459582
100
AcDbArc
 50
285.649379
 51
105.649379
  0
ARC
  5
121
330
7B
100
AcDbEntity
  8
0
  6
Continuous
 62
     0
370
     0
100
AcDbCircle
 10
156.874077
 20
450.578312
 30
0.0
 40
8.000003262459582
100
AcDbArc
 50
105.649379
 51
285.649379
  0
ARC
  5
122
330
7B
100
AcDbEntity
  8
0
  6
Continuous
 62
     0
370
    30
100
AcDbCircle
 10
156.874077
 20
450.578312
 30
0.0
 40
7.100003262459607
100
AcDbArc
 50
285.649379
 51
105.649379
  0
ARC
  5
123
330
7B
100
AcDbEntity
  8
0
  6
Continuous
 62
     0
370
    30
100
AcDbCircle
 10
156.874077
 20
450.578312
 30
0.0
 40
7.100003262459607
100
AcDbArc
 50
105.649379
 51
285.649379
  0
ARC
  5
124
330
7B
100
AcDbEntity
  8
0
  6
Continuous
 62
     0
370
    30
100
AcDbCircle
 10
156.874077
 20
450.578312
 30
0.0
 40
7.0
100
AcDbArc
 50
106.680727
 51
286.680727
  0
ARC
  5
125
330
7B
100
AcDbEntity
  8
0
  6
Continuous
 62
     0
370
    30
100
AcDbCircle
 10
156.874077
 20
450.578312
 30
0.0
 40
7.0
100
AcDbArc
 50
286.680727
 51
106.680727
  0
ARC
  5
126
330
7B
100
AcDbEntity
  8
0
  6
Continuous
 62
     0
370
    30
100
AcDbCircle
 10
163.98814
 20
426.833868
 30
0.0
 40
11.00276646573526
100
AcDbArc
 50
286.68868
 51
321.526111
  0
ARC
  5
127
330
7B
100
AcDbEntity
  8
0
  6
Continuous
 62
     0
370
    30
100
AcDbCircle
 10
163.989803
 20
426.834367
 30
0.0
 40
11.00276646565634
100
AcDbArc
 50
251.835344
 51
286.672775
  0
ARC
  5
128
330
7B
100
AcDbEntity
  8
0
  6
Continuous
 62
     0
370
    30
100
AcDbCircle
 10
161.807267
 20
420.180614
 30
0.0
 40
4.000203289055711
100
AcDbArc
 50
158.470604
 51
251.827735
  0
ARC
  5
129
330
7B
100
AcDbEntity
  8
0
  6
Continuous
 62
     0
370
    30
100
AcDbCircle
 10
169.470058
 20
422.476752
 30
0.0
 40
4.000203289055694
100
AcDbArc
 50
321.53372
 51
54.89085
  0
ARC
  5
12A
330
7B
100
AcDbEntity
  8
0
  6
Continuous
 62
     0
370
    30
100
AcDbCircle
 10
148.780896
 20
425.319024
 30
0.0
 40
10.00299654598561
100
AcDbArc
 50
338.473462
 51
16.674782
  0
ARC
  5
12B
330
7B
100
AcDbEntity
  8
0
  6
Continuous
 62
     0
370
    30
100
AcDbCircle
 10
177.524209
 20
433.931893
 30
0.0
 40
10.00299654598619
100
AcDbArc
 50
196.686673
 51
234.887992
  0
LINE
  5
12C
330
7B
100
AcDbEntity
  8
0
  6
Continuous
 62
     0
370
    30
100
AcDbLine
 10
155.525932
 20
437.658134
 30
0.0
 11
158.363255
 21
428.189273
 31
0.0
  0
LINE
  5
12D
330
7B
100
AcDbEntity
  8
0
  6
Continuous
 62
     0
370
    30
100
AcDbLine
 10
165.105123
 20
440.528518
 30
0.0
 11
167.942446
 21
431.059656
 31
0.0
  0
ARC
  5
12E
330
7B
100
AcDbEntity
  8
0
  6
Continuous
 62
     0
370
    30
100
AcDbCircle
 10
133.129633
 20
443.464249
 30
0.0
 40
11.00276646598391
100
AcDbArc
 50
196.68868
 51
231.526111
  0
ARC
  5
12F
330
7B
100
AcDbEntity
  8
0
  6
Continuous
 62
     0
370
    30
100
AcDbCircle
 10
133.130132
 20
443.462585
 30
0.0
 40
11.00276645545583
100
AcDbArc
 50
161.835344
 51
196.672775
  0
ARC
  5
130
330
7B
100
AcDbEntity
  8
0
  6
Continuous
 62
     0
370
    30
100
AcDbCircle
 10
126.476379
 20
445.645122
 30
0.0
 40
4.000203289055513
100
AcDbArc
 50
68.470604
 51
161.827735
  0
ARC
  5
131
330
7B
100
AcDbEntity
  8
0
  6
Continuous
 62
     0
370
    30
100
AcDbCircle
 10
128.772517
 20
437.98233
 30
0.0
 40
4.000203289056586
100
AcDbArc
 50
231.53372
 51
324.89085
  0
ARC
  5
132
330
7B
100
AcDbEntity
  8
0
  6
Continuous
 62
     0
370
    30
100
AcDbCircle
 10
131.614789
 20
458.671493
 30
0.0
 40
10.00299654598627
100
AcDbArc
 50
248.473462
 51
286.674782
  0
ARC
  5
133
330
7B
100
AcDbEntity
  8
0
  6
Continuous
 62
     0
370
    30
100
AcDbCircle
 10
140.227658
 20
429.928179
 30
0.0
 40
10.00299654598619
100
AcDbArc
 50
106.686673
 51
144.887992
  0
LINE
  5
134
330
7B
100
AcDbEntity
  8
0
  6
Continuous
 62
     0
370
    30
100
AcDbLine
 10
143.953899
 20
451.926457
 30
0.0
 11
134.485037
 21
449.089134
 31
0.0
  0
LINE
  5
135
330
7B
100
AcDbEntity
  8
0
  6
Continuous
 62
     0
370
    30
100
AcDbLine
 10
146.824282
 20
442.347266
 30
0.0
 11
137.355421
 21
439.509943
 31
0.0
  0
ARC
  5
136
330
7B
100
AcDbEntity
  8
0
  6
Continuous
 62
     0
370
    30
100
AcDbCircle
 10
149.760014
 20
474.322755
 30
0.0
 40
11.00276646638907
100
AcDbArc
 50
106.68868
 51
141.526111
  0
ARC
  5
137
330
7B
100
AcDbEntity
  8
0
  6
Continuous
 62
     0
370
    30
100
AcDbCircle
 10
149.75835
 20
474.322257
 30
0.0
 40
11.00276646638777
100
AcDbArc
 50
71.835344
 51
106.672775
  0
ARC
  5
138
330
7B
100
AcDbEntity
  8
0
  6
Continuous
 62
     0
370
    30
100
AcDbCircle
 10
151.940887
 20
480.97601
 30
0.0
 40
4.000203289055749
100
AcDbArc
 50
338.470604
 51
71.827735
  0
ARC
  5
139
330
7B
100
AcDbEntity
  8
0
  6
Continuous
 62
     0
370
    30
100
AcDbCircle
 10
144.278095
 20
478.679872
 30
0.0
 40
4.00020328905656
100
AcDbArc
 50
141.53372
 51
234.89085
  0
ARC
  5
13A
330
7B
100
AcDbEntity
  8
0
  6
Continuous
 62
     0
370
    30
100
AcDbCircle
 10
164.967258
 20
475.8376
 30
0.0
 40
10.00299654598703
100
AcDbArc
 50
158.473462
 51
196.674782
  0
ARC
  5
13B
330
7B
100
AcDbEntity
  8
0
  6
Continuous
 62
     0
370
    30
100
AcDbCircle
 10
136.223944
 20
467.224731
 30
0.0
 40
10.00299654598568
100
AcDbArc
 50
16.686673
 51
54.887992
  0
LINE
  5
13C
330
7B
100
AcDbEntity
  8
0
  6
Continuous
 62
     0
370
    30
100
AcDbLine
 10
158.222222
 20
463.498489
 30
0.0
 11
155.384899
 21
472.967351
 31
0.0
  0
LINE
  5
13D
330
7B
100
AcDbEntity
  8
0
  6
Continuous
 62
     0
370
    30
100
AcDbLine
 10
148.643031
 20
460.628106
 30
0.0
 11
145.805708
 21
470.096968
 31
0.0
  0
ARC
  5
13E
330
7B
100
AcDbEntity
  8
0
  6
Continuous
 62
     0
370
    30
100
AcDbCircle
 10
180.61852
 20
457.692375
 30
0.0
 40
11.00276646614107
100
AcDbArc
 50
16.68868
 51
51.526111
  0
ARC
  5
13F
330
7B
100
AcDbEntity
  8
0
  6
Continuous
 62
     0
370
    30
100
AcDbCircle
 10
180.618022
 20
457.694038
 30
0.0
 40
11.00276646620326
100
AcDbArc
 50
341.835344
 51
16.672775
  0
ARC
  5
140
330
7B
100
AcDbEntity
  8
0
  6
Continuous
 62
     0
370
    30
100
AcDbCircle
 10
187.271775
 20
455.511502
 30
0.0
 40
4.000203289055976
100
AcDbArc
 50
248.470604
 51
341.827735
  0
ARC
  5
141
330
7B
100
AcDbEntity
  8
0
  6
Continuous
 62
     0
370
    30
100
AcDbCircle
 10
184.975636
 20
463.174293
 30
0.0
 40
4.000203289055911
100
AcDbArc
 50
51.53372
 51
144.89085
  0
ARC
  5
142
330
7B
100
AcDbEntity
  8
0
  6
Continuous
 62
     0
370
    30
100
AcDbCircle
 10
182.133365
 20
442.485131
 30
0.0
 40
10.00299654598651
100
AcDbArc
 50
68.473462
 51
106.674782
  0
ARC
  5
143
330
7B
100
AcDbEntity
  8
0
  6
Continuous
 62
     0
370
    30
100
AcDbCircle
 10
173.520495
 20
471.228445
 30
0.0
 40
10.0029965459867
100
AcDbArc
 50
286.686673
 51
324.887992
  0
LINE
  5
144
330
7B
100
AcDbEntity
  8
0
  6
Continuous
 62
     0
370
    30
100
AcDbLine
 10
169.794254
 20
449.230167
 30
0.0
 11
179.263116
 21
452.06749
 31
0.0
  0
LINE
  5
145
330
7B
100
AcDbEntity
  8
0
  6
Continuous
 62
     0
370
    30
100
AcDbLine
 10
166.923871
 20
458.809358
 30
0.0
 11
176.392733
 21
461.646681
 31
0.0
  0
LINE
  5
146
330
7B
100
AcDbEntity
  8
0
  6
Continuous
 62
     0
370
     0
100
AcDbLine
 10
286.392733
 20
461.646681
 30
0.0
 11
287.827925
 21
456.857086
 31
0.0
  0
LINE
  5
147
330
7B
100
AcDbEntity
  8
0
  6
Continuous
 62
     0
370
     0
100
AcDbLine
 10
287.827925
 20
456.857086
 30
0.0
 11
289.263116
 21
452.06749
 31
0.0
  0
LINE
  5
148
330
7B
100
AcDbEntity
  8
0
  6
Continuous
 62
     0
370
     0
100
AcDbLine
 10
291.703239
 20
465.474954
 30
0.0
 11
293.753512
 21
458.632675
 31
0.0
  0
LINE
  5
149
330
7B
100
AcDbEntity
  8
0
  6
Continuous
 62
     0
370
     0
100
AcDbLine
 10
293.753512
 20
458.632675
 30
0.0
 11
295.803786
 21
451.790395
 31
0.0
  0
LINE
  5
14A
330
7B
100
AcDbEntity
  8
0
  6
Continuous
 62
     0
370
     0
100
AcDbLine
 10
297.463979
 20
466.30635
 30
0.0
 11
299.26822
 21
460.285144
 31
0.0
  0
LINE
  5
14B
330
7B
100
AcDbEntity
  8
0
  6
Continuous
 62
     0
370
     0
100
AcDbLine
 10
299.26822
 20
460.285144
 30
0.0
 11
301.07246
 21
454.263939
 31
0.0
  0
ARC
  5
14C
330
7B
100
AcDbEntity
  8
0
  6
Continuous
 62
     0
370
    30
100
AcDbCircle
 10
290.61852
 20
457.692375
 30
0.0
 40
11.00276646628131
100
AcDbArc
 50
16.68868
 51
51.526111
  0
ARC
  5
14D
330
7B
100
AcDbEntity
  8
0
  6
Continuous
 62
     0
370
    30
100
AcDbCircle
 10
290.618022
 20
457.694038
 30
0.0
 40
11.0027664663003
100
AcDbArc
 50
341.835344
 51
16.672775
  0
ARC
  5
14E
330
7B
100
AcDbEntity
  8
0
  6
Continuous
 62
     0
370
    30
100
AcDbCircle
 10
297.271775
 20
455.511502
 30
0.0
 40
4.000203289055825
100
AcDbArc
 50
248.470604
 51
341.827735
  0
ARC
  5
14F
330
7B
100
AcDbEntity
  8
0
  6
Continuous
 62
     0
370
    30
100
AcDbCircle
 10
294.975636
 20
463.174293
 30
0.0
 40
4.000203289055819
100
AcDbArc
 50
51.53372
 51
144.89085
  0
ARC
  5
150
330
7B
100
AcDbEntity
  8
0
  6
Continuous
 62
     0
370
    30
100
AcDbCircle
 10
292.133365
 20
442.485131
 30
0.0
 40
10.00299654598643
100
AcDbArc
 50
68.473462
 51
106.674782
  0
ARC
  5
151
330
7B
100
AcDbEntity
  8
0
  6
Continuous
 62
     0
370
    30
100
AcDbCircle
 10
283.520495
 20
471.228445
 30
0.0
 40
10.00299654598646
100
AcDbArc
 50
286.686673
 51
324.887992
  0
LINE
  5
152
330
7B
100
AcDbEntity
  8
0
  6
Continuous
 62
     0
370
    30
100
AcDbLine
 10
279.751355
 20
449.217312
 30
0.0
 11
289.263116
 21
452.06749
 31
0.0
  0
LINE
  5
153
330
7B
100
AcDbEntity
  8
0
  6
Continuous
 62
     0
370
    30
100
AcDbLine
 10
276.880972
 20
458.796503
 30
0.0
 11
286.392733
 21
461.646681
 31
0.0
  0
LINE
  5
154
330
7B
100
AcDbEntity
  8
0
  6
Continuous
 62
     0
370
     0
100
AcDbLine
 10
247.355421
 20
439.509943
 30
0.0
 11
245.920229
 21
444.299538
 31
0.0
  0
LINE
  5
155
330
7B
100
AcDbEntity
  8
0
  6
Continuous
 62
     0
370
     0
100
AcDbLine
 10
245.920229
 20
444.299538
 30
0.0
 11
244.485037
 21
449.089134
 31
0.0
  0
LINE
  5
156
330
7B
100
AcDbEntity
  8
0
  6
Continuous
 62
     0
370
     0
100
AcDbLine
 10
242.044915
 20
435.68167
 30
0.0
 11
239.994641
 21
442.523949
 31
0.0
  0
LINE
  5
157
330
7B
100
AcDbEntity
  8
0
  6
Continuous
 62
     0
370
     0
100
AcDbLine
 10
239.994641
 20
442.523949
 30
0.0
 11
237.944368
 21
449.366228
 31
0.0
  0
LINE
  5
158
330
7B
100
AcDbEntity
  8
0
  6
Continuous
 62
     0
370
     0
100
AcDbLine
 10
236.284175
 20
434.850274
 30
0.0
 11
234.479934
 21
440.871479
 31
0.0
  0
LINE
  5
159
330
7B
100
AcDbEntity
  8
0
  6
Continuous
 62
     0
370
     0
100
AcDbLine
 10
234.479934
 20
440.871479
 30
0.0
 11
232.675693
 21
446.892685
 31
0.0
  0
ARC
  5
15A
330
7B
100
AcDbEntity
  8
0
  6
Continuous
 62
     0
370
    30
100
AcDbCircle
 10
243.129633
 20
443.464249
 30
0.0
 40
11.00276646543124
100
AcDbArc
 50
196.68868
 51
231.526111
  0
ARC
  5
15B
330
7B
100
AcDbEntity
  8
0
  6
Continuous
 62
     0
370
    30
100
AcDbCircle
 10
243.130132
 20
443.462585
 30
0.0
 40
11.00276646589528
100
AcDbArc
 50
161.835344
 51
196.672775
  0
ARC
  5
15C
330
7B
100
AcDbEntity
  8
0
  6
Continuous
 62
     0
370
    30
100
AcDbCircle
 10
236.476379
 20
445.645122
 30
0.0
 40
4.000203289055803
100
AcDbArc
 50
68.470604
 51
161.827735
  0
ARC
  5
15D
330
7B
100
AcDbEntity
  8
0
  6
Continuous
 62
     0
370
    30
100
AcDbCircle
 10
238.772517
 20
437.98233
 30
0.0
 40
4.000203289055827
100
AcDbArc
 50
231.53372
 51
324.89085
  0
ARC
  5
15E
330
7B
100
AcDbEntity
  8
0
  6
Continuous
 62
     0
370
    30
100
AcDbCircle
 10
241.614789
 20
458.671493
 30
0.0
 40
10.00299654598647
100
AcDbArc
 50
248.473462
 51
286.674782
  0
ARC
  5
15F
330
7B
100
AcDbEntity
  8
0
  6
Continuous
 62
     0
370
    30
100
AcDbCircle
 10
250.227658
 20
429.928179
 30
0.0
 40
10.00299654598637
100
AcDbArc
 50
106.686673
 51
144.887992
  0
LINE
  5
160
330
7B
100
AcDbEntity
  8
0
  6
Continuous
 62
     0
370
    30
100
AcDbLine
 10
253.996799
 20
451.939312
 30
0.0
 11
244.485037
 21
449.089134
 31
0.0
  0
LINE
  5
161
330
7B
100
AcDbEntity
  8
0
  6
Continuous
 62
     0
370
    30
100
AcDbLine
 10
256.867182
 20
442.360121
 30
0.0
 11
247.355421
 21
439.509943
 31
0.0
  0
ARC
  5
162
330
7B
100
AcDbEntity
  8
0
  6
Continuous
 62
     0
370
    30
100
AcDbCircle
 10
266.874077
 20
450.578312
 30
0.0
 40
13.00000326245959
100
AcDbArc
 50
285.649379
 51
105.649379
  0
ARC
  5
163
330
7B
100
AcDbEntity
  8
0
  6
Continuous
 62
     0
370
    30
100
AcDbCircle
 10
266.874077
 20
450.578312
 30
0.0
 40
13.00000326245959
100
AcDbArc
 50
105.649379
 51
285.649379
  0
ARC
  5
164
330
7B
100
AcDbEntity
  8
0
  6
Continuous
 62
     0
370
     0
100
AcDbCircle
 10
266.874077
 20
450.578312
 30
0.0
 40
8.000003262459582
100
AcDbArc
 50
285.649379
 51
105.649379
  0
ARC
  5
165
330
7B
100
AcDbEntity
  8
0
  6
Continuous
 62
     0
370
     0
100
AcDbCircle
 10
266.874077
 20
450.578312
 30
0.0
 40
8.000003262459582
100
AcDbArc
 50
105.649379
 51
285.649379
  0
ARC
  5
166
330
7B
100
AcDbEntity
  8
0
  6
Continuous
 62
     0
370
    30
100
AcDbCircle
 10
266.874077
 20
450.578312
 30
0.0
 40
7.100003262459607
100
AcDbArc
 50
285.649379
 51
105.649379
  0
ARC
  5
167
330
7B
100
AcDbEntity
  8
0
  6
Continuous
 62
     0
370
    30
100
AcDbCircle
 10
266.874077
 20
450.578312
 30
0.0
 40
7.100003262459607
100
AcDbArc
 50
105.649379
 51
285.649379
  0
ARC
  5
168
330
7B
100
AcDbEntity
  8
0
  6
Continuous
 62
     0
370
    30
100
AcDbCircle
 10
266.874077
 20
450.578312
 30
0.0
 40
7.0
100
AcDbArc
 50
106.680727
 51
286.680727
  0
ARC
  5
169
330
7B
100
AcDbEntity
  8
0
  6
Continuous
 62
     0
370
    30
100
AcDbCircle
 10
266.874077
 20
450.578312
 30
0.0
 40
7.0
100
AcDbArc
 50
286.680727
 51
106.680727
  0
ENDBLK
  5
16B
330
7B
100
AcDbEntity
  8
0
100
AcDbBlockEnd
  0
BLOCK
  5
231
330
16D
100
AcDbEntity
  8
0
100
AcDbBlockBegin
  2
b
 70
     0
 10
89.706009
 20
167.540405
 30
0.0
  3
b
  1

  0
LINE
  5
16E
330
16D
100
AcDbEntity
  8
0
  6
Continuous
 62
     0
370
    30
100
AcDbLine
 10
141.55245
 20
196.675897
 30
0.0
 11
172.195704
 21
196.675897
 31
0.0
  0
ARC
  5
16F
330
16D
100
AcDbEntity
  8
0
  6
Continuous
 62
     0
370
    30
100
AcDbCircle
 10
172.195704
 20
204.675897
 30
0.0
 40
7.999999999936003
100
AcDbArc
 50
270.0
 51
350.204853
  0
LINE
  5
170
330
16D
100
AcDbEntity
  8
0
  6
Continuous
 62
     0
370
     0
100
AcDbLine
 10
133.669072
 20
203.314889
 30
0.0
 11
180.079082
 21
203.314889
 31
0.0
  0
LINE
  5
171
330
16D
100
AcDbEntity
  8
0
  6
Continuous
 62
     0
370
    30
100
AcDbLine
 10
180.079082
 20
203.314889
 30
0.0
 11
184.201637
 21
227.193994
 31
0.0
  0
LINE
  5
172
330
16D
100
AcDbEntity
  8
0
  6
Continuous
 62
     0
370
     0
100
AcDbLine
 10
129.546517
 20
227.193994
 30
0.0
 11
184.201637
 21
227.193994
 31
0.0
  0
ARC
  5
173
330
16D
100
AcDbEntity
  8
0
  6
Continuous
 62
     0
370
    30
100
AcDbCircle
 10
193.070438
 20
225.662859
 30
0.0
 40
8.999999999964002
100
AcDbArc
 50
133.472
 51
170.204853
  0
LINE
  5
174
330
16D
100
AcDbEntity
  8
0
  6
Continuous
 62
     0
370
     0
100
AcDbLine
 10
126.869716
 20
232.194256
 30
0.0
 11
186.878437
 21
232.194256
 31
0.0
  0
ARC
  5
175
330
16D
100
AcDbEntity
  8
0
  6
Continuous
 62
     0
370
    30
100
AcDbCircle
 10
181.374437
 20
237.999941
 30
0.0
 40
7.999999999936003
100
AcDbArc
 50
313.472
 51
0.544002
  0
LINE
  5
176
330
16D
100
AcDbEntity
  8
0
  6
Continuous
 62
     0
370
    30
100
AcDbLine
 10
124.374077
 20
238.075897
 30
0.0
 11
189.374077
 21
238.075897
 31
0.0
  0
ARC
  5
177
330
16D
100
AcDbEntity
  8
0
  6
Continuous
 62
     0
370
    30
100
AcDbCircle
 10
132.377288
 20
238.001456
 30
0.0
 40
8.00355731758071
100
AcDbArc
 50
179.467089
 51
226.516909
  0
ARC
  5
178
330
16D
100
AcDbEntity
  8
0
  6
Continuous
 62
     0
370
    30
100
AcDbCircle
 10
120.675394
 20
225.661616
 30
0.0
 40
9.00250005165846
100
AcDbArc
 50
9.800429
 51
46.522718
  0
LINE
  5
179
330
16D
100
AcDbEntity
  8
0
  6
Continuous
 62
     0
370
    30
100
AcDbLine
 10
133.669072
 20
203.314889
 30
0.0
 11
129.546517
 21
227.193994
 31
0.0
  0
ARC
  5
17A
330
16D
100
AcDbEntity
  8
0
  6
Continuous
 62
     0
370
    30
100
AcDbCircle
 10
141.553436
 20
204.677068
 30
0.0
 40
8.00117085085561
100
AcDbArc
 50
189.802206
 51
269.985559
  0
LINE
  5
17B
330
16D
100
AcDbEntity
  8
0
  6
Continuous
 62
     0
370
    30
100
AcDbLine
 10
251.55245
 20
196.675897
 30
0.0
 11
282.195704
 21
196.675897
 31
0.0
  0
ARC
  5
17C
330
16D
100
AcDbEntity
  8
0
  6
Continuous
 62
     0
370
    30
100
AcDbCircle
 10
282.195704
 20
204.675897
 30
0.0
 40
7.999999999936003
100
AcDbArc
 50
270.0
 51
350.204853
  0
LINE
  5
17D
330
16D
100
AcDbEntity
  8
0
  6
Continuous
 62
     0
370
     0
100
AcDbLine
 10
243.669072
 20
203.314889
 30
0.0
 11
290.079082
 21
203.314889
 31
0.0
  0
LINE
  5
17E
330
16D
100
AcDbEntity
  8
0
  6
Continuous
 62
     0
370
    30
100
AcDbLine
 10
290.079082
 20
203.314889
 30
0.0
 11
294.201637
 21
227.193994
 31
0.0
  0
LINE
  5
17F
330
16D
100
AcDbEntity
  8
0
  6
Continuous
 62
     0
370
     0
100
AcDbLine
 10
239.546517
 20
227.193994
 30
0.0
 11
294.201637
 21
227.193994
 31
0.0
  0
ARC
  5
180
330
16D
100
AcDbEntity
  8
0
  6
Continuous
 62
     0
370
    30
100
AcDbCircle
 10
303.070438
 20
225.66286
 30
0.0
 40
8.999999999964002
100
AcDbArc
 50
133.472
 51
170.204853
  0
LINE
  5
181
330
16D
100
AcDbEntity
  8
0
  6
Continuous
 62
     0
370
     0
100
AcDbLine
 10
236.869716
 20
232.194256
 30
0.0
 11
296.878437
 21
232.194256
 31
0.0
  0
ARC
  5
182
330
16D
100
AcDbEntity
  8
0
  6
Continuous
 62
     0
370
    30
100
AcDbCircle
 10
291.374437
 20
237.999941
 30
0.0
 40
7.999999999936003
100
AcDbArc
 50
313.472
 51
0.544002
  0
LINE
  5
183
330
16D
100
AcDbEntity
  8
0
  6
Continuous
 62
     0
370
    30
100
AcDbLine
 10
234.374077
 20
238.075897
 30
0.0
 11
299.374077
 21
238.075897
 31
0.0
  0
ARC
  5
184
330
16D
100
AcDbEntity
  8
0
  6
Continuous
 62
     0
370
    30
100
AcDbCircle
 10
242.377288
 20
238.001457
 30
0.0
 40
8.003557317581187
100
AcDbArc
 50
179.467089
 51
226.516909
  0
ARC
  5
185
330
16D
100
AcDbEntity
  8
0
  6
Continuous
 62
     0
370
    30
100
AcDbCircle
 10
230.675394
 20
225.661616
 30
0.0
 40
9.002500051660267
100
AcDbArc
 50
9.800429
 51
46.522718
  0
LINE
  5
186
330
16D
100
AcDbEntity
  8
0
  6
Continuous
 62
     0
370
    30
100
AcDbLine
 10
243.669072
 20
203.314889
 30
0.0
 11
239.546517
 21
227.193994
 31
0.0
  0
ARC
  5
187
330
16D
100
AcDbEntity
  8
0
  6
Continuous
 62
     0
370
    30
100
AcDbCircle
 10
251.553436
 20
204.677068
 30
0.0
 40
8.001170850855827
100
AcDbArc
 50
189.802206
 51
269.985559
  0
LINE
  5
188
330
16D
100
AcDbEntity
  8
0
  6
Continuous
 62
     0
370
    30
100
AcDbLine
 10
361.55245
 20
196.675897
 30
0.0
 11
392.195704
 21
196.675897
 31
0.0
  0
ARC
  5
189
330
16D
100
AcDbEntity
  8
0
  6
Continuous
 62
     0
370
    30
100
AcDbCircle
 10
392.195704
 20
204.675897
 30
0.0
 40
7.999999999936003
100
AcDbArc
 50
270.0
 51
350.204853
  0
LINE
  5
18A
330
16D
100
AcDbEntity
  8
0
  6
Continuous
 62
     0
370
     0
100
AcDbLine
 10
353.669072
 20
203.314889
 30
0.0
 11
400.079082
 21
203.314889
 31
0.0
  0
LINE
  5
18B
330
16D
100
AcDbEntity
  8
0
  6
Continuous
 62
     0
370
    30
100
AcDbLine
 10
400.079082
 20
203.314889
 30
0.0
 11
404.201637
 21
227.193994
 31
0.0
  0
LINE
  5
18C
330
16D
100
AcDbEntity
  8
0
  6
Continuous
 62
     0
370
     0
100
AcDbLine
 10
349.546517
 20
227.193994
 30
0.0
 11
404.201637
 21
227.193994
 31
0.0
  0
ARC
  5
18D
330
16D
100
AcDbEntity
  8
0
  6
Continuous
 62
     0
370
    30
100
AcDbCircle
 10
413.070438
 20
225.662859
 30
0.0
 40
8.999999999964002
100
AcDbArc
 50
133.472
 51
170.204853
  0
LINE
  5
18E
330
16D
100
AcDbEntity
  8
0
  6
Continuous
 62
     0
370
     0
100
AcDbLine
 10
346.869716
 20
232.194256
 30
0.0
 11
406.878437
 21
232.194256
 31
0.0
  0
ARC
  5
18F
330
16D
100
AcDbEntity
  8
0
  6
Continuous
 62
     0
370
    30
100
AcDbCircle
 10
401.374437
 20
237.999941
 30
0.0
 40
7.999999999936003
100
AcDbArc
 50
313.472
 51
0.544002
  0
LINE
  5
190
330
16D
100
AcDbEntity
  8
0
  6
Continuous
 62
     0
370
    30
100
AcDbLine
 10
344.374077
 20
238.075897
 30
0.0
 11
409.374077
 21
238.075897
 31
0.0
  0
ARC
  5
191
330
16D
100
AcDbEntity
  8
0
  6
Continuous
 62
     0
370
    30
100
AcDbCircle
 10
352.377288
 20
238.001456
 30
0.0
 40
8.003557317581553
100
AcDbArc
 50
179.467089
 51
226.516909
  0
ARC
  5
192
330
16D
100
AcDbEntity
  8
0
  6
Continuous
 62
     0
370
    30
100
AcDbCircle
 10
340.675394
 20
225.661616
 30
0.0
 40
9.00250005166025
100
AcDbArc
 50
9.800429
 51
46.522718
  0
LINE
  5
193
330
16D
100
AcDbEntity
  8
0
  6
Continuous
 62
     0
370
    30
100
AcDbLine
 10
353.669072
 20
203.314889
 30
0.0
 11
349.546517
 21
227.193994
 31
0.0
  0
ARC
  5
194
330
16D
100
AcDbEntity
  8
0
  6
Continuous
 62
     0
370
    30
100
AcDbCircle
 10
361.553436
 20
204.677068
 30
0.0
 40
8.001170850855871
100
AcDbArc
 50
189.802206
 51
269.985559
  0
LINE
  5
195
330
16D
100
AcDbEntity
  8
0
  6
Continuous
 62
     0
370
     0
100
AcDbLine
 10
367.409791
 20
188.313171
 30
0.0
 11
385.940097
 21
188.313171
 31
0.0
  0
LINE
  5
196
330
16D
100
AcDbEntity
  8
0
  6
Continuous
 62
     0
370
     0
100
AcDbLine
 10
385.940097
 20
188.313171
 30
0.0
 11
386.338363
 21
188.313171
 31
0.0
  0
LINE
  5
197
330
16D
100
AcDbEntity
  8
0
  6
Continuous
 62
     0
370
    30
100
AcDbLine
 10
375.283124
 20
183.175896
 30
0.0
 11
374.340142
 21
183.522379
 31
0.0
  0
LINE
  5
198
330
16D
100
AcDbEntity
  8
0
  6
Continuous
 62
     0
370
     0
100
AcDbLine
 10
375.283124
 20
183.175897
 30
0.0
 11
388.52519
 21
183.175897
 31
0.0
  0
ARC
  5
199
330
16D
100
AcDbEntity
  8
0
  6
Continuous
 62
     0
370
    30
100
AcDbCircle
 10
389.535912
 20
182.457556
 30
0.0
 40
1.239989335195951
100
AcDbArc
 50
100.722497
 51
144.59783
  0
LINE
  5
19A
330
16D
100
AcDbEntity
  8
0
  6
Continuous
 62
     0
370
     0
100
AcDbLine
 10
370.623973
 20
193.015595
 30
0.0
 11
382.86117
 21
193.015595
 31
0.0
  0
LINE
  5
19B
330
16D
100
AcDbEntity
  8
0
  6
Continuous
 62
     0
370
     0
100
AcDbLine
 10
382.86117
 20
193.015595
 30
0.0
 11
383.12418
 21
193.015595
 31
0.0
  0
ELLIPSE
  5
19C
330
16D
100
AcDbEntity
  8
0
  6
Continuous
 62
     0
370
     0
100
AcDbEllipse
 10
397.827925
 20
178.675895
 30
0.0
 11
6.549009873598866E-8
 21
4.999999999979931
 31
0.0
210
0.0
220
0.0
230
1.0
 40
0.287038
 41
0.0000000456316069
 42
3.1415926992214
  0
LINE
  5
19D
330
16D
100
AcDbEntity
  8
0
  6
Continuous
 62
     0
370
    30
100
AcDbLine
 10
389.327025
 20
173.675895
 30
0.0
 11
397.827925
 21
173.675895
 31
0.0
  0
LWPOLYLINE
  5
19E
330
16D
100
AcDbEntity
  8
0
  6
Continuous
 62
     0
370
    30
100
AcDbPolyline
 90
       24
 70
     0
 43
0.0
 10
388.525177
 20
183.175903
 10
388.286713
 20
182.892349
 10
388.047852
 20
182.552872
 10
387.815613
 20
182.162216
 10
387.596924
 20
181.724976
 10
387.398682
 20
181.245941
 10
387.227997
 20
180.730453
 10
387.09137
 20
180.184677
 10
386.994751
 20
179.615799
 10
386.942657
 20
179.031937
 10
386.937714
 20
178.442337
 10
386.980103
 20
177.856491
 10
387.06781
 20
177.283798
 10
387.196533
 20
176.732544
 10
387.360687
 20
176.210266
 10
387.553772
 20
175.72319
 10
387.768799
 20
175.27684
 10
387.99881
 20
174.876068
 10
388.236816
 20
174.525635
 10
388.47583
 20
174.230164
 10
388.709503
 20
173.99382
 10
388.93161
 20
173.820572
 10
389.136353
 20
173.713928
 10
389.327026
 20
173.675888
  0
ELLIPSE
  5
19F
330
16D
100
AcDbEntity
  8
0
  6
Continuous
 62
     0
370
     0
100
AcDbEllipse
 10
403.753512
 20
178.675895
 30
0.0
 11
9.355728390855446E-8
 21
7.142857142828414
 31
0.0
210
0.0
220
0.0
230
1.0
 40
0.287038
 41
0.0000000456316069
 42
3.1415926992214
  0
ELLIPSE
  5
1A0
330
16D
100
AcDbEntity
  8
0
  6
Continuous
 62
     0
370
     0
100
AcDbEllipse
 10
409.26822
 20
178.675895
 30
0.0
 11
8.233040983952179E-8
 21
6.285714285688536
 31
0.0
210
0.0
220
0.0
230
1.0
 40
0.287038
 41
0.0000000456316069
 42
3.1415926992214
  0
ELLIPSE
  5
1A1
330
16D
100
AcDbEntity
  8
0
  6
Continuous
 62
     0
370
     0
100
AcDbEllipse
 10
409.26822
 20
178.675895
 30
0.0
 11
8.233040983952179E-8
 21
6.285714285688536
 31
0.0
210
0.0
220
0.0
230
1.0
 40
0.287038
 41
5.838319079370791
 42
6.283185352811193
  0
ELLIPSE
  5
1A2
330
16D
100
AcDbEntity
  8
0
  6
Continuous
 62
     0
370
     0
100
AcDbEllipse
 10
409.26822
 20
178.675895
 30
0.0
 11
8.233040983952179E-8
 21
6.285714285688536
 31
0.0
210
0.0
220
0.0
230
1.0
 40
0.287038
 41
3.1415926992214
 42
3.586458046682938
  0
ARC
  5
1A3
330
16D
100
AcDbEntity
  8
0
  6
Continuous
 62
     0
370
    30
100
AcDbCircle
 10
373.270246
 20
178.658611
 30
0.0
 40
4.945457445202239
100
AcDbArc
 50
282.514525
 51
65.9825
  0
ELLIPSE
  5
1A4
330
16D
100
AcDbEntity
  8
0
  6
Continuous
 62
     0
370
     0
100
AcDbEllipse
 10
367.167244
 20
178.675894
 30
0.0
 11
9.169342511737704E-7
 21
-6.28571428568847
 31
0.0
210
0.0
220
0.0
230
1.0
 40
0.957919
 41
3.141592501305652
 42
6.28318515489541
  0
ELLIPSE
  5
1A5
330
16D
100
AcDbEntity
  8
0
  6
Continuous
 62
     0
370
     0
100
AcDbEllipse
 10
367.167244
 20
178.675894
 30
0.0
 11
9.169342511737704E-7
 21
-6.28571428568847
 31
0.0
210
0.0
220
0.0
230
1.0
 40
0.957919
 41
6.283185154895429
 42
9.424777808485238
  0
ELLIPSE
  5
1A6
330
16D
100
AcDbEntity
  8
0
  6
Continuous
 62
     0
370
     0
100
AcDbEllipse
 10
355.920229
 20
178.675895
 30
0.0
 11
-6.549009873598861E-8
 21
-4.999999999979931
 31
0.0
210
0.0
220
0.0
230
-1.0
 40
0.287038
 41
-0.0000000456316069
 42
3.141592607958196
  0
LINE
  5
1A7
330
16D
100
AcDbEntity
  8
0
  6
Continuous
 62
     0
370
    30
100
AcDbLine
 10
361.995545
 20
173.675895
 30
0.0
 11
355.920229
 21
173.675895
 31
0.0
  0
ELLIPSE
  5
1A8
330
16D
100
AcDbEntity
  8
0
  6
Continuous
 62
     0
370
     0
100
AcDbEllipse
 10
349.994641
 20
178.675895
 30
0.0
 11
-9.355728390855438E-8
 21
-7.142857142828414
 31
0.0
210
0.0
220
0.0
230
-1.0
 40
0.287038
 41
6.045028893823668
 42
6.283185261547972
  0
ELLIPSE
  5
1A9
330
16D
100
AcDbEntity
  8
0
  6
Continuous
 62
     0
370
     0
100
AcDbEllipse
 10
349.994641
 20
178.675895
 30
0.0
 11
-9.355728390855438E-8
 21
-7.142857142828414
 31
0.0
210
0.0
220
0.0
230
-1.0
 40
0.287038
 41
3.141592607958193
 42
3.379748975682411
  0
ELLIPSE
  5
1AA
330
16D
100
AcDbEntity
  8
0
  6
Continuous
 62
     0
370
     0
100
AcDbEllipse
 10
349.994641
 20
178.675895
 30
0.0
 11
-9.355728390855438E-8
 21
-7.142857142828414
 31
0.0
210
0.0
220
0.0
230
-1.0
 40
0.287038
 41
-0.0000000456316069
 42
3.141592607958193
  0
ELLIPSE
  5
1AB
330
16D
100
AcDbEntity
  8
0
  6
Continuous
 62
     0
370
     0
100
AcDbEllipse
 10
344.479934
 20
178.675895
 30
0.0
 11
-8.233040983952172E-8
 21
-6.285714285688536
 31
0.0
210
0.0
220
0.0
230
-1.0
 40
0.287038
 41
0.4448637832245354
 42
2.696728393268976
  0
LINE
  5
1AC
330
16D
100
AcDbEntity
  8
0
  6
Continuous
 62
     0
370
     0
100
AcDbLine
 10
373.367328
 20
166.675897
 30
0.0
 11
363.874074
 21
166.675897
 31
0.0
  0
LINE
  5
1AD
330
16D
100
AcDbEntity
  8
0
  6
Continuous
 62
     0
370
     0
100
AcDbLine
 10
389.87408
 20
166.675897
 30
0.0
 11
373.367328
 21
166.675897
 31
0.0
  0
LINE
  5
1AE
330
16D
100
AcDbEntity
  8
0
  6
Continuous
 62
     0
370
    30
100
AcDbLine
 10
384.87408
 20
161.675897
 30
0.0
 11
374.716078
 21
161.675897
 31
0.0
  0
LINE
  5
1AF
330
16D
100
AcDbEntity
  8
0
  6
Continuous
 62
     0
370
    30
100
AcDbLine
 10
374.716078
 20
161.675897
 30
0.0
 11
368.874074
 21
161.675897
 31
0.0
  0
LINE
  5
1B0
330
16D
100
AcDbEntity
  8
0
  6
Continuous
 62
     0
370
    30
100
AcDbLine
 10
389.874077
 20
166.675897
 30
0.0
 11
389.874077
 21
173.675895
 31
0.0
  0
LINE
  5
1B1
330
16D
100
AcDbEntity
  8
0
  6
Continuous
 62
     0
370
    30
100
AcDbLine
 10
363.874077
 20
166.675897
 30
0.0
 11
363.874077
 21
171.947056
 31
0.0
  0
ARC
  5
1B2
330
16D
100
AcDbEntity
  8
0
  6
Continuous
 62
     0
370
    30
100
AcDbCircle
 10
368.874987
 20
166.67681
 30
0.0
 40
5.000913014709639
100
AcDbArc
 50
180.01046
 51
269.98954
  0
ARC
  5
1B3
330
16D
100
AcDbEntity
  8
0
  6
Continuous
 62
     0
370
    30
100
AcDbCircle
 10
384.873167
 20
166.67681
 30
0.0
 40
5.000913014710171
100
AcDbArc
 50
270.01046
 51
359.98954
  0
ARC
  5
1B4
330
16D
100
AcDbEntity
  8
0
  6
Continuous
 62
     0
370
    30
100
AcDbCircle
 10
385.579309
 20
178.858754
 30
0.0
 40
7.829246776867111
100
AcDbArc
 50
37.971926
 51
62.376464
  0
ARC
  5
1B5
330
16D
100
AcDbEntity
  8
0
  6
Continuous
 62
     0
370
    30
100
AcDbCircle
 10
385.5437
 20
178.537396
 30
0.0
 40
7.885729966402771
100
AcDbArc
 50
303.308098
 51
321.93949
  0
ARC
  5
1B6
330
16D
100
AcDbEntity
  8
0
  6
Continuous
 62
     0
370
    30
100
AcDbCircle
 10
353.128018
 20
178.675895
 30
0.0
 40
11.00067325499557
100
AcDbArc
 50
148.950472
 51
211.049543
  0
ARC
  5
1B7
330
16D
100
AcDbEntity
  8
0
  6
Continuous
 62
     0
370
    30
100
AcDbCircle
 10
347.606558
 20
182.226977
 30
0.0
 40
4.443001689205545
100
AcDbArc
 50
49.732487
 51
151.458639
  0
ARC
  5
1B8
330
16D
100
AcDbEntity
  8
0
  6
Continuous
 62
     0
370
    30
100
AcDbCircle
 10
347.608185
 20
175.09543
 30
0.0
 40
4.41956494104827
100
AcDbArc
 50
270.210293
 51
310.497636
  0
ARC
  5
1B9
330
16D
100
AcDbEntity
  8
0
  6
Continuous
 62
     0
370
    30
100
AcDbCircle
 10
347.688694
 20
175.251886
 30
0.0
 40
4.576442700445634
100
AcDbArc
 50
209.447654
 51
269.195117
  0
ARC
  5
1BA
330
16D
100
AcDbEntity
  8
0
  6
Continuous
 62
     0
370
    30
100
AcDbCircle
 10
355.874537
 20
192.146086
 30
0.0
 40
8.47031431406279
100
AcDbArc
 50
230.426056
 51
270.309074
  0
ARC
  5
1BB
330
16D
100
AcDbEntity
  8
0
  6
Continuous
 62
     0
370
    30
100
AcDbCircle
 10
355.874537
 20
165.205704
 30
0.0
 40
8.470314352427225
100
AcDbArc
 50
89.690923
 51
129.57394
  0
LINE
  5
1BC
330
16D
100
AcDbEntity
  8
0
  6
Continuous
 62
     0
370
    30
100
AcDbLine
 10
361.996953
 20
183.675895
 30
0.0
 11
355.920229
 21
183.675895
 31
0.0
  0
CIRCLE
  5
1BD
330
16D
100
AcDbEntity
  8
0
  6
Continuous
 62
     0
370
    30
100
AcDbCircle
 10
368.1172
 20
178.663852
 30
0.0
 40
7.923577789830301
  0
ARC
  5
1BE
330
16D
100
AcDbEntity
  8
0
  6
Continuous
 62
     0
370
    30
100
AcDbCircle
 10
400.620135
 20
178.675895
 30
0.0
 40
11.00067325499782
100
AcDbArc
 50
328.950457
 51
31.049528
  0
ARC
  5
1BF
330
16D
100
AcDbEntity
  8
0
  6
Continuous
 62
     0
370
    30
100
AcDbCircle
 10
406.141596
 20
182.226976
 30
0.0
 40
4.443001668903698
100
AcDbArc
 50
28.541363
 51
130.267515
  0
ARC
  5
1C0
330
16D
100
AcDbEntity
  8
0
  6
Continuous
 62
     0
370
    30
100
AcDbCircle
 10
406.139968
 20
175.09543
 30
0.0
 40
4.419564918464425
100
AcDbArc
 50
229.502366
 51
269.789709
  0
ARC
  5
1C1
330
16D
100
AcDbEntity
  8
0
  6
Continuous
 62
     0
370
    30
100
AcDbCircle
 10
406.05946
 20
175.251886
 30
0.0
 40
4.576442757846088
100
AcDbArc
 50
270.804885
 51
330.552347
  0
ARC
  5
1C2
330
16D
100
AcDbEntity
  8
0
  6
Continuous
 62
     0
370
    30
100
AcDbCircle
 10
397.873617
 20
192.146086
 30
0.0
 40
8.47031435242593
100
AcDbArc
 50
269.690923
 51
309.57394
  0
ARC
  5
1C3
330
16D
100
AcDbEntity
  8
0
  6
Continuous
 62
     0
370
    30
100
AcDbCircle
 10
397.873616
 20
165.205704
 30
0.0
 40
8.470314314061934
100
AcDbArc
 50
50.426056
 51
90.309074
  0
LINE
  5
1C4
330
16D
100
AcDbEntity
  8
0
  6
Continuous
 62
     0
370
    30
100
AcDbLine
 10
389.305209
 20
183.675895
 30
0.0
 11
397.827925
 21
183.675895
 31
0.0
  0
LINE
  5
1C5
330
16D
100
AcDbEntity
  8
0
  6
Continuous
 62
     0
370
    30
100
AcDbLine
 10
383.12418
 20
193.015595
 30
0.0
 11
383.135958
 21
196.675897
 31
0.0
  0
LINE
  5
1C6
330
16D
100
AcDbEntity
  8
0
  6
Continuous
 62
     0
370
    30
100
AcDbLine
 10
370.623973
 20
193.015595
 30
0.0
 11
370.612196
 21
196.675897
 31
0.0
  0
ARC
  5
1C7
330
16D
100
AcDbEntity
  8
0
  6
Continuous
 62
     0
370
    30
100
AcDbCircle
 10
388.121926
 20
192.981949
 30
0.0
 40
4.99785874869846
100
AcDbArc
 50
179.614276
 51
249.092181
  0
ARC
  5
1C8
330
16D
100
AcDbEntity
  8
0
  6
Continuous
 62
     0
370
    30
100
AcDbCircle
 10
365.626228
 20
192.981949
 30
0.0
 40
4.997858748698001
100
AcDbArc
 50
290.907819
 51
0.385724
  0
ARC
  5
1C9
330
16D
100
AcDbEntity
  8
0
  6
Continuous
 62
     0
370
    30
100
AcDbCircle
 10
369.369264
 20
183.182735
 30
0.0
 40
5.491894552792187
100
AcDbArc
 50
110.903409
 51
151.591032
  0
ARC
  5
1CA
330
16D
100
AcDbEntity
  8
0
  6
Continuous
 62
     0
370
    30
100
AcDbCircle
 10
384.379067
 20
183.180688
 30
0.0
 40
5.493743309180649
100
AcDbArc
 50
5.171668
 51
69.105928
  0
LINE
  5
1CB
330
16D
100
AcDbEntity
  8
0
  6
Continuous
 62
     0
370
     0
100
AcDbLine
 10
147.409791
 20
188.313171
 30
0.0
 11
165.940097
 21
188.313171
 31
0.0
  0
LINE
  5
1CC
330
16D
100
AcDbEntity
  8
0
  6
Continuous
 62
     0
370
     0
100
AcDbLine
 10
165.940097
 20
188.313171
 30
0.0
 11
166.338363
 21
188.313171
 31
0.0
  0
LINE
  5
1CD
330
16D
100
AcDbEntity
  8
0
  6
Continuous
 62
     0
370
    30
100
AcDbLine
 10
155.283124
 20
183.175896
 30
0.0
 11
154.340142
 21
183.522379
 31
0.0
  0
LINE
  5
1CE
330
16D
100
AcDbEntity
  8
0
  6
Continuous
 62
     0
370
     0
100
AcDbLine
 10
155.283124
 20
183.175897
 30
0.0
 11
168.52519
 21
183.175897
 31
0.0
  0
ARC
  5
1CF
330
16D
100
AcDbEntity
  8
0
  6
Continuous
 62
     0
370
    30
100
AcDbCircle
 10
169.535912
 20
182.457556
 30
0.0
 40
1.239989335190604
100
AcDbArc
 50
100.722497
 51
144.59783
  0
LINE
  5
1D0
330
16D
100
AcDbEntity
  8
0
  6
Continuous
 62
     0
370
     0
100
AcDbLine
 10
150.623973
 20
193.015595
 30
0.0
 11
162.86117
 21
193.015595
 31
0.0
  0
LINE
  5
1D1
330
16D
100
AcDbEntity
  8
0
  6
Continuous
 62
     0
370
     0
100
AcDbLine
 10
162.86117
 20
193.015595
 30
0.0
 11
163.12418
 21
193.015595
 31
0.0
  0
ELLIPSE
  5
1D2
330
16D
100
AcDbEntity
  8
0
  6
Continuous
 62
     0
370
     0
100
AcDbEllipse
 10
177.827925
 20
178.675895
 30
0.0
 11
6.549009873598866E-8
 21
4.999999999979931
 31
0.0
210
0.0
220
0.0
230
1.0
 40
0.287038
 41
0.0000000456316176
 42
3.1415926992214
  0
LINE
  5
1D3
330
16D
100
AcDbEntity
  8
0
  6
Continuous
 62
     0
370
    30
100
AcDbLine
 10
169.327025
 20
173.675895
 30
0.0
 11
177.827925
 21
173.675895
 31
0.0
  0
LWPOLYLINE
  5
1D4
330
16D
100
AcDbEntity
  8
0
  6
Continuous
 62
     0
370
    30
100
AcDbPolyline
 90
       24
 70
     0
 43
0.0
 10
168.525192
 20
183.175903
 10
168.286713
 20
182.892349
 10
168.047852
 20
182.552872
 10
167.815628
 20
182.162216
 10
167.596924
 20
181.724976
 10
167.398697
 20
181.245941
 10
167.227982
 20
180.730453
 10
167.09137
 20
180.184677
 10
166.994736
 20
179.615799
 10
166.942642
 20
179.031937
 10
166.937714
 20
178.442337
 10
166.980103
 20
177.856491
 10
167.067825
 20
177.283798
 10
167.196533
 20
176.732544
 10
167.360687
 20
176.210266
 10
167.553772
 20
175.72319
 10
167.768799
 20
175.27684
 10
167.99881
 20
174.876068
 10
168.236801
 20
174.525635
 10
168.475845
 20
174.230164
 10
168.709518
 20
173.99382
 10
168.931625
 20
173.820572
 10
169.136368
 20
173.713928
 10
169.327026
 20
173.675888
  0
ELLIPSE
  5
1D5
330
16D
100
AcDbEntity
  8
0
  6
Continuous
 62
     0
370
     0
100
AcDbEllipse
 10
183.753512
 20
178.675895
 30
0.0
 11
9.355728390855446E-8
 21
7.142857142828414
 31
0.0
210
0.0
220
0.0
230
1.0
 40
0.287038
 41
0.000000045631614
 42
3.1415926992214
  0
ELLIPSE
  5
1D6
330
16D
100
AcDbEntity
  8
0
  6
Continuous
 62
     0
370
     0
100
AcDbEllipse
 10
189.26822
 20
178.675895
 30
0.0
 11
8.233040983952179E-8
 21
6.285714285688536
 31
0.0
210
0.0
220
0.0
230
1.0
 40
0.287038
 41
0.0000000456316149
 42
3.1415926992214
  0
ELLIPSE
  5
1D7
330
16D
100
AcDbEntity
  8
0
  6
Continuous
 62
     0
370
     0
100
AcDbEllipse
 10
189.26822
 20
178.675895
 30
0.0
 11
8.233040983952179E-8
 21
6.285714285688536
 31
0.0
210
0.0
220
0.0
230
1.0
 40
0.287038
 41
5.838319079370784
 42
6.283185352811201
  0
ELLIPSE
  5
1D8
330
16D
100
AcDbEntity
  8
0
  6
Continuous
 62
     0
370
     0
100
AcDbEllipse
 10
189.26822
 20
178.675895
 30
0.0
 11
8.233040983952179E-8
 21
6.285714285688536
 31
0.0
210
0.0
220
0.0
230
1.0
 40
0.287038
 41
3.141592699221408
 42
3.586458046682957
  0
ARC
  5
1D9
330
16D
100
AcDbEntity
  8
0
  6
Continuous
 62
     0
370
    30
100
AcDbCircle
 10
153.270246
 20
178.658611
 30
0.0
 40
4.945457445202344
100
AcDbArc
 50
282.514525
 51
65.9825
  0
ELLIPSE
  5
1DA
330
16D
100
AcDbEntity
  8
0
  6
Continuous
 62
     0
370
     0
100
AcDbEllipse
 10
147.167244
 20
178.675894
 30
0.0
 11
9.169342511737704E-7
 21
-6.28571428568847
 31
0.0
210
0.0
220
0.0
230
1.0
 40
0.957919
 41
3.141592501305645
 42
6.28318515489541
  0
ELLIPSE
  5
1DB
330
16D
100
AcDbEntity
  8
0
  6
Continuous
 62
     0
370
     0
100
AcDbEllipse
 10
147.167244
 20
178.675894
 30
0.0
 11
9.169342511737704E-7
 21
-6.28571428568847
 31
0.0
210
0.0
220
0.0
230
1.0
 40
0.957919
 41
6.283185154895429
 42
9.424777808485231
  0
ELLIPSE
  5
1DC
330
16D
100
AcDbEntity
  8
0
  6
Continuous
 62
     0
370
     0
100
AcDbEllipse
 10
135.920229
 20
178.675895
 30
0.0
 11
-6.549009873598861E-8
 21
-4.999999999979931
 31
0.0
210
0.0
220
0.0
230
-1.0
 40
0.287038
 41
-0.0000000456316069
 42
3.141592607958186
  0
LINE
  5
1DD
330
16D
100
AcDbEntity
  8
0
  6
Continuous
 62
     0
370
    30
100
AcDbLine
 10
141.995545
 20
173.675895
 30
0.0
 11
135.920229
 21
173.675895
 31
0.0
  0
ELLIPSE
  5
1DE
330
16D
100
AcDbEntity
  8
0
  6
Continuous
 62
     0
370
     0
100
AcDbEllipse
 10
129.994641
 20
178.675895
 30
0.0
 11
-9.355728390855438E-8
 21
-7.142857142828414
 31
0.0
210
0.0
220
0.0
230
-1.0
 40
0.287038
 41
6.045028893823654
 42
6.283185261547965
  0
ELLIPSE
  5
1DF
330
16D
100
AcDbEntity
  8
0
  6
Continuous
 62
     0
370
     0
100
AcDbEllipse
 10
129.994641
 20
178.675895
 30
0.0
 11
-9.355728390855438E-8
 21
-7.142857142828414
 31
0.0
210
0.0
220
0.0
230
-1.0
 40
0.287038
 41
3.141592607958186
 42
3.379748975682482
  0
ELLIPSE
  5
1E0
330
16D
100
AcDbEntity
  8
0
  6
Continuous
 62
     0
370
     0
100
AcDbEllipse
 10
129.994641
 20
178.675895
 30
0.0
 11
-9.355728390855438E-8
 21
-7.142857142828414
 31
0.0
210
0.0
220
0.0
230
-1.0
 40
0.287038
 41
-0.0000000456316069
 42
3.141592607958186
  0
ELLIPSE
  5
1E1
330
16D
100
AcDbEntity
  8
0
  6
Continuous
 62
     0
370
     0
100
AcDbEllipse
 10
124.479934
 20
178.675895
 30
0.0
 11
-8.233040983952172E-8
 21
-6.285714285688536
 31
0.0
210
0.0
220
0.0
230
-1.0
 40
0.287038
 41
0.4448637250449547
 42
2.696729611193538
  0
LINE
  5
1E2
330
16D
100
AcDbEntity
  8
0
  6
Continuous
 62
     0
370
     0
100
AcDbLine
 10
153.367328
 20
166.675897
 30
0.0
 11
143.874074
 21
166.675897
 31
0.0
  0
LINE
  5
1E3
330
16D
100
AcDbEntity
  8
0
  6
Continuous
 62
     0
370
     0
100
AcDbLine
 10
169.87408
 20
166.675897
 30
0.0
 11
153.367328
 21
166.675897
 31
0.0
  0
LINE
  5
1E4
330
16D
100
AcDbEntity
  8
0
  6
Continuous
 62
     0
370
    30
100
AcDbLine
 10
164.87408
 20
161.675897
 30
0.0
 11
154.716078
 21
161.675897
 31
0.0
  0
LINE
  5
1E5
330
16D
100
AcDbEntity
  8
0
  6
Continuous
 62
     0
370
    30
100
AcDbLine
 10
154.716078
 20
161.675897
 30
0.0
 11
148.874074
 21
161.675897
 31
0.0
  0
LINE
  5
1E6
330
16D
100
AcDbEntity
  8
0
  6
Continuous
 62
     0
370
    30
100
AcDbLine
 10
169.874077
 20
166.675897
 30
0.0
 11
169.874077
 21
173.675895
 31
0.0
  0
LINE
  5
1E7
330
16D
100
AcDbEntity
  8
0
  6
Continuous
 62
     0
370
    30
100
AcDbLine
 10
143.874077
 20
166.675897
 30
0.0
 11
143.874077
 21
171.947056
 31
0.0
  0
ARC
  5
1E8
330
16D
100
AcDbEntity
  8
0
  6
Continuous
 62
     0
370
    30
100
AcDbCircle
 10
148.874987
 20
166.67681
 30
0.0
 40
5.000913014710072
100
AcDbArc
 50
180.01046
 51
269.98954
  0
ARC
  5
1E9
330
16D
100
AcDbEntity
  8
0
  6
Continuous
 62
     0
370
    30
100
AcDbCircle
 10
164.873167
 20
166.67681
 30
0.0
 40
5.000913014709596
100
AcDbArc
 50
270.01046
 51
359.98954
  0
ARC
  5
1EA
330
16D
100
AcDbEntity
  8
0
  6
Continuous
 62
     0
370
    30
100
AcDbCircle
 10
165.579309
 20
178.858754
 30
0.0
 40
7.829246776857692
100
AcDbArc
 50
37.971926
 51
62.376464
  0
ARC
  5
1EB
330
16D
100
AcDbEntity
  8
0
  6
Continuous
 62
     0
370
    30
100
AcDbCircle
 10
165.5437
 20
178.537396
 30
0.0
 40
7.88572996640964
100
AcDbArc
 50
303.308098
 51
321.93949
  0
ARC
  5
1EC
330
16D
100
AcDbEntity
  8
0
  6
Continuous
 62
     0
370
    30
100
AcDbCircle
 10
133.128018
 20
178.675895
 30
0.0
 40
11.00067325499551
100
AcDbArc
 50
148.950472
 51
211.049543
  0
ARC
  5
1ED
330
16D
100
AcDbEntity
  8
0
  6
Continuous
 62
     0
370
    30
100
AcDbCircle
 10
127.606558
 20
182.226977
 30
0.0
 40
4.443001689205089
100
AcDbArc
 50
49.732487
 51
151.458639
  0
ARC
  5
1EE
330
16D
100
AcDbEntity
  8
0
  6
Continuous
 62
     0
370
    30
100
AcDbCircle
 10
127.608185
 20
175.09543
 30
0.0
 40
4.419564941045273
100
AcDbArc
 50
270.210293
 51
310.497636
  0
ARC
  5
1EF
330
16D
100
AcDbEntity
  8
0
  6
Continuous
 62
     0
370
    30
100
AcDbCircle
 10
127.688694
 20
175.251886
 30
0.0
 40
4.576442700445158
100
AcDbArc
 50
209.447654
 51
269.195117
  0
ARC
  5
1F0
330
16D
100
AcDbEntity
  8
0
  6
Continuous
 62
     0
370
    30
100
AcDbCircle
 10
135.874537
 20
192.146086
 30
0.0
 40
8.470314314065718
100
AcDbArc
 50
230.426056
 51
270.309074
  0
ARC
  5
1F1
330
16D
100
AcDbEntity
  8
0
  6
Continuous
 62
     0
370
    30
100
AcDbCircle
 10
135.874537
 20
165.205704
 30
0.0
 40
8.470314352428383
100
AcDbArc
 50
89.690923
 51
129.57394
  0
LINE
  5
1F2
330
16D
100
AcDbEntity
  8
0
  6
Continuous
 62
     0
370
    30
100
AcDbLine
 10
141.996953
 20
183.675895
 30
0.0
 11
135.920229
 21
183.675895
 31
0.0
  0
CIRCLE
  5
1F3
330
16D
100
AcDbEntity
  8
0
  6
Continuous
 62
     0
370
    30
100
AcDbCircle
 10
148.1172
 20
178.663852
 30
0.0
 40
7.923577789830285
  0
ARC
  5
1F4
330
16D
100
AcDbEntity
  8
0
  6
Continuous
 62
     0
370
    30
100
AcDbCircle
 10
180.620135
 20
178.675895
 30
0.0
 40
11.00067325499633
100
AcDbArc
 50
328.950457
 51
31.049528
  0
ARC
  5
1F5
330
16D
100
AcDbEntity
  8
0
  6
Continuous
 62
     0
370
    30
100
AcDbCircle
 10
186.141596
 20
182.226976
 30
0.0
 40
4.443001668903081
100
AcDbArc
 50
28.541363
 51
130.267515
  0
ARC
  5
1F6
330
16D
100
AcDbEntity
  8
0
  6
Continuous
 62
     0
370
    30
100
AcDbCircle
 10
186.139968
 20
175.09543
 30
0.0
 40
4.41956491846469
100
AcDbArc
 50
229.502366
 51
269.789709
  0
ARC
  5
1F7
330
16D
100
AcDbEntity
  8
0
  6
Continuous
 62
     0
370
    30
100
AcDbCircle
 10
186.05946
 20
175.251886
 30
0.0
 40
4.576442757846929
100
AcDbArc
 50
270.804885
 51
330.552347
  0
ARC
  5
1F8
330
16D
100
AcDbEntity
  8
0
  6
Continuous
 62
     0
370
    30
100
AcDbCircle
 10
177.873617
 20
192.146086
 30
0.0
 40
8.470314352427417
100
AcDbArc
 50
269.690923
 51
309.57394
  0
ARC
  5
1F9
330
16D
100
AcDbEntity
  8
0
  6
Continuous
 62
     0
370
    30
100
AcDbCircle
 10
177.873616
 20
165.205704
 30
0.0
 40
8.470314314064506
100
AcDbArc
 50
50.426056
 51
90.309074
  0
LINE
  5
1FA
330
16D
100
AcDbEntity
  8
0
  6
Continuous
 62
     0
370
    30
100
AcDbLine
 10
169.305209
 20
183.675895
 30
0.0
 11
177.827925
 21
183.675895
 31
0.0
  0
LINE
  5
1FB
330
16D
100
AcDbEntity
  8
0
  6
Continuous
 62
     0
370
    30
100
AcDbLine
 10
163.12418
 20
193.015595
 30
0.0
 11
163.135958
 21
196.675897
 31
0.0
  0
LINE
  5
1FC
330
16D
100
AcDbEntity
  8
0
  6
Continuous
 62
     0
370
    30
100
AcDbLine
 10
150.623973
 20
193.015595
 30
0.0
 11
150.612196
 21
196.675897
 31
0.0
  0
ARC
  5
1FD
330
16D
100
AcDbEntity
  8
0
  6
Continuous
 62
     0
370
    30
100
AcDbCircle
 10
168.121926
 20
192.981949
 30
0.0
 40
4.997858748698095
100
AcDbArc
 50
179.614276
 51
249.092181
  0
ARC
  5
1FE
330
16D
100
AcDbEntity
  8
0
  6
Continuous
 62
     0
370
    30
100
AcDbCircle
 10
145.626228
 20
192.981949
 30
0.0
 40
4.997858748698601
100
AcDbArc
 50
290.907819
 51
0.385724
  0
ARC
  5
1FF
330
16D
100
AcDbEntity
  8
0
  6
Continuous
 62
     0
370
    30
100
AcDbCircle
 10
149.369264
 20
183.182735
 30
0.0
 40
5.491894552788414
100
AcDbArc
 50
110.903409
 51
151.591032
  0
ARC
  5
200
330
16D
100
AcDbEntity
  8
0
  6
Continuous
 62
     0
370
    30
100
AcDbCircle
 10
164.379067
 20
183.180688
 30
0.0
 40
5.493743309180454
100
AcDbArc
 50
5.171668
 51
69.105928
  0
LINE
  5
201
330
16D
100
AcDbEntity
  8
0
  6
Continuous
 62
     0
370
    30
100
AcDbLine
 10
253.874077
 20
168.675897
 30
0.0
 11
279.327025
 21
168.675897
 31
0.0
  0
LINE
  5
202
330
16D
100
AcDbEntity
  8
0
  6
Continuous
 62
     0
370
     0
100
AcDbLine
 10
253.874077
 20
183.175897
 30
0.0
 11
279.327025
 21
183.175897
 31
0.0
  0
LINE
  5
203
330
16D
100
AcDbEntity
  8
0
  6
Continuous
 62
     0
370
     0
100
AcDbLine
 10
257.409791
 20
188.313171
 30
0.0
 11
275.940097
 21
188.313171
 31
0.0
  0
LINE
  5
204
330
16D
100
AcDbEntity
  8
0
  6
Continuous
 62
     0
370
     0
100
AcDbLine
 10
275.940097
 20
188.313171
 30
0.0
 11
276.338363
 21
188.313171
 31
0.0
  0
LINE
  5
205
330
16D
100
AcDbEntity
  8
0
  6
Continuous
 62
     0
370
     0
100
AcDbLine
 10
260.623973
 20
193.015596
 30
0.0
 11
272.86117
 21
193.015596
 31
0.0
  0
LINE
  5
206
330
16D
100
AcDbEntity
  8
0
  6
Continuous
 62
     0
370
     0
100
AcDbLine
 10
272.86117
 20
193.015596
 30
0.0
 11
273.12418
 21
193.015596
 31
0.0
  0
LINE
  5
207
330
16D
100
AcDbEntity
  8
0
  6
Continuous
 62
     0
370
    30
100
AcDbLine
 10
273.12418
 20
193.015596
 30
0.0
 11
273.135958
 21
196.675897
 31
0.0
  0
LINE
  5
208
330
16D
100
AcDbEntity
  8
0
  6
Continuous
 62
     0
370
    30
100
AcDbLine
 10
260.623973
 20
193.015596
 30
0.0
 11
260.612196
 21
196.675897
 31
0.0
  0
ARC
  5
209
330
16D
100
AcDbEntity
  8
0
  6
Continuous
 62
     0
370
    30
100
AcDbCircle
 10
278.121926
 20
192.98195
 30
0.0
 40
4.997858748697822
100
AcDbArc
 50
179.614276
 51
249.092181
  0
ARC
  5
20A
330
16D
100
AcDbEntity
  8
0
  6
Continuous
 62
     0
370
    30
100
AcDbCircle
 10
255.626228
 20
192.98195
 30
0.0
 40
4.997858748697885
100
AcDbArc
 50
290.907819
 51
0.385724
  0
ARC
  5
20B
330
16D
100
AcDbEntity
  8
0
  6
Continuous
 62
     0
370
    30
100
AcDbCircle
 10
274.375505
 20
183.177218
 30
0.0
 40
5.498256359927861
100
AcDbArc
 50
5.203726
 51
69.084151
  0
ARC
  5
20C
330
16D
100
AcDbEntity
  8
0
  6
Continuous
 62
     0
370
    30
100
AcDbCircle
 10
259.371739
 20
183.177506
 30
0.0
 40
5.497662413124976
100
AcDbArc
 50
110.908064
 51
180.016769
  0
LINE
  5
20D
330
16D
100
AcDbEntity
  8
0
  6
Continuous
 62
     0
370
    30
100
AcDbLine
 10
279.874077
 20
168.675897
 30
0.0
 11
279.874077
 21
173.675895
 31
0.0
  0
LINE
  5
20E
330
16D
100
AcDbEntity
  8
0
  6
Continuous
 62
     0
370
    30
100
AcDbLine
 10
278.316163
 20
173.675895
 30
0.0
 11
287.827925
 21
173.675895
 31
0.0
  0
ELLIPSE
  5
20F
330
16D
100
AcDbEntity
  8
0
  6
Continuous
 62
     0
370
     0
100
AcDbEllipse
 10
287.827925
 20
178.675895
 30
0.0
 11
6.549009873598866E-8
 21
4.999999999979931
 31
0.0
210
0.0
220
0.0
230
1.0
 40
0.287038
 41
0.0000000456316149
 42
3.1415926992214
  0
ELLIPSE
  5
210
330
16D
100
AcDbEntity
  8
0
  6
Continuous
 62
     0
370
     0
100
AcDbEllipse
 10
293.753512
 20
178.675895
 30
0.0
 11
9.355728390855446E-8
 21
7.142857142828414
 31
0.0
210
0.0
220
0.0
230
1.0
 40
0.287038
 41
0.000000045631614
 42
3.1415926992214
  0
ELLIPSE
  5
211
330
16D
100
AcDbEntity
  8
0
  6
Continuous
 62
     0
370
     0
100
AcDbEllipse
 10
299.26822
 20
178.675895
 30
0.0
 11
8.233040983952179E-8
 21
6.285714285688536
 31
0.0
210
0.0
220
0.0
230
1.0
 40
0.287038
 41
0.0000000456316149
 42
3.1415926992214
  0
ELLIPSE
  5
212
330
16D
100
AcDbEntity
  8
0
  6
Continuous
 62
     0
370
     0
100
AcDbEllipse
 10
299.26822
 20
178.675895
 30
0.0
 11
8.233040983952179E-8
 21
6.285714285688536
 31
0.0
210
0.0
220
0.0
230
1.0
 40
0.287038
 41
5.8383190793708
 42
6.283185352811201
  0
ELLIPSE
  5
213
330
16D
100
AcDbEntity
  8
0
  6
Continuous
 62
     0
370
     0
100
AcDbEllipse
 10
299.26822
 20
178.675895
 30
0.0
 11
8.233040983952179E-8
 21
6.285714285688536
 31
0.0
210
0.0
220
0.0
230
1.0
 40
0.287038
 41
3.141592699221404
 42
3.586458046682926
  0
ARC
  5
214
330
16D
100
AcDbEntity
  8
0
  6
Continuous
 62
     0
370
    30
100
AcDbCircle
 10
290.620135
 20
178.675895
 30
0.0
 40
11.00067325499693
100
AcDbArc
 50
328.950457
 51
31.049528
  0
ARC
  5
215
330
16D
100
AcDbEntity
  8
0
  6
Continuous
 62
     0
370
    30
100
AcDbCircle
 10
296.141596
 20
182.226976
 30
0.0
 40
4.443001668903097
100
AcDbArc
 50
28.541363
 51
130.267515
  0
ARC
  5
216
330
16D
100
AcDbEntity
  8
0
  6
Continuous
 62
     0
370
    30
100
AcDbCircle
 10
296.139968
 20
175.09543
 30
0.0
 40
4.419564918464826
100
AcDbArc
 50
229.502366
 51
269.789709
  0
ARC
  5
217
330
16D
100
AcDbEntity
  8
0
  6
Continuous
 62
     0
370
    30
100
AcDbCircle
 10
296.05946
 20
175.251886
 30
0.0
 40
4.576442757845943
100
AcDbArc
 50
270.804885
 51
330.552347
  0
ARC
  5
218
330
16D
100
AcDbEntity
  8
0
  6
Continuous
 62
     0
370
    30
100
AcDbCircle
 10
287.873617
 20
192.146086
 30
0.0
 40
8.47031435242775
100
AcDbArc
 50
269.690923
 51
309.57394
  0
ARC
  5
219
330
16D
100
AcDbEntity
  8
0
  6
Continuous
 62
     0
370
    30
100
AcDbCircle
 10
287.873616
 20
165.205704
 30
0.0
 40
8.4703143140637
100
AcDbArc
 50
50.426056
 51
90.309074
  0
LINE
  5
21A
330
16D
100
AcDbEntity
  8
0
  6
Continuous
 62
     0
370
    30
100
AcDbLine
 10
278.316163
 20
183.675895
 30
0.0
 11
287.827925
 21
183.675895
 31
0.0
  0
LINE
  5
21B
330
16D
100
AcDbEntity
  8
0
  6
Continuous
 62
     0
370
    30
100
AcDbLine
 10
253.874077
 20
173.675895
 30
0.0
 11
245.920229
 21
173.675896
 31
0.0
  0
ELLIPSE
  5
21C
330
16D
100
AcDbEntity
  8
0
  6
Continuous
 62
     0
370
     0
100
AcDbEllipse
 10
245.920229
 20
178.675896
 30
0.0
 11
-6.549009873598866E-8
 21
-4.999999999979931
 31
0.0
210
0.0
220
0.0
230
-1.0
 40
0.287038
 41
-0.000000045631543
 42
3.141592607958193
  0
ELLIPSE
  5
21D
330
16D
100
AcDbEntity
  8
0
  6
Continuous
 62
     0
370
     0
100
AcDbEllipse
 10
239.994641
 20
178.675896
 30
0.0
 11
-9.355728390855446E-8
 21
-7.142857142828414
 31
0.0
210
0.0
220
0.0
230
-1.0
 40
0.287038
 41
6.045028893823706
 42
6.283185261547979
  0
ELLIPSE
  5
21E
330
16D
100
AcDbEntity
  8
0
  6
Continuous
 62
     0
370
     0
100
AcDbEllipse
 10
239.994641
 20
178.675896
 30
0.0
 11
-9.355728390855446E-8
 21
-7.142857142828414
 31
0.0
210
0.0
220
0.0
230
-1.0
 40
0.287038
 41
3.141592607958193
 42
3.379748975682396
  0
ELLIPSE
  5
21F
330
16D
100
AcDbEntity
  8
0
  6
Continuous
 62
     0
370
     0
100
AcDbEllipse
 10
239.994641
 20
178.675896
 30
0.0
 11
-9.355728390855446E-8
 21
-7.142857142828414
 31
0.0
210
0.0
220
0.0
230
-1.0
 40
0.287038
 41
-0.0000000456315989
 42
3.141592607958193
  0
ELLIPSE
  5
220
330
16D
100
AcDbEntity
  8
0
  6
Continuous
 62
     0
370
     0
100
AcDbEllipse
 10
234.479934
 20
178.675896
 30
0.0
 11
-8.233040983952179E-8
 21
-6.285714285688536
 31
0.0
210
0.0
220
0.0
230
-1.0
 40
0.287038
 41
0.4448638023220785
 42
2.696728736144217
  0
ARC
  5
221
330
16D
100
AcDbEntity
  8
0
  6
Continuous
 62
     0
370
    30
100
AcDbCircle
 10
243.128018
 20
178.675896
 30
0.0
 40
11.00067325499597
100
AcDbArc
 50
148.950472
 51
211.049543
  0
ARC
  5
222
330
16D
100
AcDbEntity
  8
0
  6
Continuous
 62
     0
370
    30
100
AcDbCircle
 10
237.606558
 20
182.226977
 30
0.0
 40
4.443001689205785
100
AcDbArc
 50
49.732487
 51
151.458639
  0
ARC
  5
223
330
16D
100
AcDbEntity
  8
0
  6
Continuous
 62
     0
370
    30
100
AcDbCircle
 10
237.608185
 20
175.095431
 30
0.0
 40
4.419564941047089
100
AcDbArc
 50
270.210293
 51
310.497636
  0
ARC
  5
224
330
16D
100
AcDbEntity
  8
0
  6
Continuous
 62
     0
370
    30
100
AcDbCircle
 10
237.688694
 20
175.251887
 30
0.0
 40
4.576442700446019
100
AcDbArc
 50
209.447654
 51
269.195117
  0
ARC
  5
225
330
16D
100
AcDbEntity
  8
0
  6
Continuous
 62
     0
370
    30
100
AcDbCircle
 10
245.874537
 20
192.146087
 30
0.0
 40
8.470314314062446
100
AcDbArc
 50
230.426056
 51
270.309074
  0
ARC
  5
226
330
16D
100
AcDbEntity
  8
0
  6
Continuous
 62
     0
370
    30
100
AcDbCircle
 10
245.874537
 20
165.205704
 30
0.0
 40
8.470314352426723
100
AcDbArc
 50
89.690923
 51
129.57394
  0
LINE
  5
227
330
16D
100
AcDbEntity
  8
0
  6
Continuous
 62
     0
370
    30
100
AcDbLine
 10
253.897054
 20
183.675895
 30
0.0
 11
245.920229
 21
183.675896
 31
0.0
  0
LINE
  5
228
330
16D
100
AcDbEntity
  8
0
  6
Continuous
 62
     0
370
    30
100
AcDbLine
 10
279.87408
 20
168.675897
 30
0.0
 11
279.327025
 21
168.675897
 31
0.0
  0
LINE
  5
229
330
16D
100
AcDbEntity
  8
0
  6
Continuous
 62
     0
370
     0
100
AcDbLine
 10
279.87408
 20
166.675897
 30
0.0
 11
263.367328
 21
166.675897
 31
0.0
  0
LINE
  5
22A
330
16D
100
AcDbEntity
  8
0
  6
Continuous
 62
     0
370
     0
100
AcDbLine
 10
263.367328
 20
166.675897
 30
0.0
 11
253.874074
 21
166.675897
 31
0.0
  0
LINE
  5
22B
330
16D
100
AcDbEntity
  8
0
  6
Continuous
 62
     0
370
    30
100
AcDbLine
 10
274.87408
 20
161.675897
 30
0.0
 11
264.716078
 21
161.675897
 31
0.0
  0
LINE
  5
22C
330
16D
100
AcDbEntity
  8
0
  6
Continuous
 62
     0
370
    30
100
AcDbLine
 10
264.716078
 20
161.675897
 30
0.0
 11
258.874074
 21
161.675897
 31
0.0
  0
ARC
  5
22D
330
16D
100
AcDbEntity
  8
0
  6
Continuous
 62
     0
370
    30
100
AcDbCircle
 10
258.874987
 20
166.67681
 30
0.0
 40
5.000913014709764
100
AcDbArc
 50
180.01046
 51
269.98954
  0
ARC
  5
22E
330
16D
100
AcDbEntity
  8
0
  6
Continuous
 62
     0
370
    30
100
AcDbCircle
 10
274.873167
 20
166.67681
 30
0.0
 40
5.000913014709469
100
AcDbArc
 50
270.01046
 51
359.98954
  0
LINE
  5
22F
330
16D
100
AcDbEntity
  8
0
  6
Continuous
 62
     0
370
    30
100
AcDbLine
 10
253.874074
 20
168.675897
 30
0.0
 11
253.874074
 21
166.675897
 31
0.0
  0
LINE
  5
230
330
16D
100
AcDbEntity
  8
0
  6
Continuous
 62
     0
370
    30
100
AcDbLine
 10
279.87408
 20
168.675897
 30
0.0
 11
279.87408
 21
166.675897
 31
0.0
  0
ENDBLK
  5
232
330
16D
100
AcDbEntity
  8
0
100
AcDbBlockEnd
  0
BLOCK
  5
27D
330
234
100
AcDbEntity
  8
0
100
AcDbBlockBegin
  2
c
 70
     0
 10
89.706009
 20
167.540405
 30
0.0
  3
c
  1

  0
LINE
  5
235
330
234
100
AcDbEntity
  8
0
  6
Continuous
 62
     0
370
    30
100
AcDbLine
 10
507.481363
 20
450.578297
 30
0.0
 11
507.481363
 21
465.899923
 31
0.0
  0
LINE
  5
236
330
234
100
AcDbEntity
  8
0
  6
Continuous
 62
     0
370
    30
100
AcDbLine
 10
507.481363
 20
435.25667
 30
0.0
 11
507.481363
 21
450.578297
 31
0.0
  0
LINE
  5
237
330
234
100
AcDbEntity
  8
0
  6
Continuous
 62
     0
370
     0
100
AcDbLine
 10
500.842372
 20
450.578297
 30
0.0
 11
500.842372
 21
473.783302
 31
0.0
  0
LINE
  5
238
330
234
100
AcDbEntity
  8
0
  6
Continuous
 62
     0
370
     0
100
AcDbLine
 10
500.842372
 20
427.373291
 30
0.0
 11
500.842372
 21
450.578297
 31
0.0
  0
LINE
  5
239
330
234
100
AcDbEntity
  8
0
  6
Continuous
 62
     0
370
     0
100
AcDbLine
 10
476.963267
 20
450.578297
 30
0.0
 11
476.963267
 21
477.905857
 31
0.0
  0
LINE
  5
23A
330
234
100
AcDbEntity
  8
0
  6
Continuous
 62
     0
370
     0
100
AcDbLine
 10
476.963267
 20
423.250737
 30
0.0
 11
476.963267
 21
450.578297
 31
0.0
  0
LINE
  5
23B
330
234
100
AcDbEntity
  8
0
  6
Continuous
 62
     0
370
     0
100
AcDbLine
 10
471.963005
 20
450.578297
 30
0.0
 11
471.963005
 21
480.582657
 31
0.0
  0
LINE
  5
23C
330
234
100
AcDbEntity
  8
0
  6
Continuous
 62
     0
370
     0
100
AcDbLine
 10
471.963005
 20
420.573936
 30
0.0
 11
471.963005
 21
450.578297
 31
0.0
  0
LINE
  5
23D
330
234
100
AcDbEntity
  8
0
  6
Continuous
 62
     0
370
    30
100
AcDbLine
 10
466.081363
 20
450.578297
 30
0.0
 11
466.081363
 21
483.078297
 31
0.0
  0
LINE
  5
23E
330
234
100
AcDbEntity
  8
0
  6
Continuous
 62
     0
370
    30
100
AcDbLine
 10
466.081363
 20
418.078297
 30
0.0
 11
466.081363
 21
450.578297
 31
0.0
  0
ARC
  5
23F
330
234
100
AcDbEntity
  8
0
  6
Continuous
 62
     0
370
    30
100
AcDbCircle
 10
466.155804
 20
426.081508
 30
0.0
 40
8.00355731758132
100
AcDbArc
 50
269.467089
 51
316.516909
  0
ARC
  5
240
330
234
100
AcDbEntity
  8
0
  6
Continuous
 62
     0
370
    30
100
AcDbCircle
 10
466.155804
 20
475.075086
 30
0.0
 40
8.003557317581256
100
AcDbArc
 50
43.483091
 51
90.532911
  0
ARC
  5
241
330
234
100
AcDbEntity
  8
0
  6
Continuous
 62
     0
370
    30
100
AcDbCircle
 10
478.495644
 20
414.379614
 30
0.0
 40
9.00250005166025
100
AcDbArc
 50
99.800429
 51
136.522718
  0
ARC
  5
242
330
234
100
AcDbEntity
  8
0
  6
Continuous
 62
     0
370
    30
100
AcDbCircle
 10
478.495644
 20
486.77698
 30
0.0
 40
9.00250005165994
100
AcDbArc
 50
223.477282
 51
260.199571
  0
LINE
  5
243
330
234
100
AcDbEntity
  8
0
  6
Continuous
 62
     0
370
    30
100
AcDbLine
 10
500.842372
 20
427.373291
 30
0.0
 11
476.963267
 21
423.250737
 31
0.0
  0
LINE
  5
244
330
234
100
AcDbEntity
  8
0
  6
Continuous
 62
     0
370
    30
100
AcDbLine
 10
500.842372
 20
473.783302
 30
0.0
 11
476.963267
 21
477.905857
 31
0.0
  0
ARC
  5
245
330
234
100
AcDbEntity
  8
0
  6
Continuous
 62
     0
370
    30
100
AcDbCircle
 10
499.480193
 20
435.257656
 30
0.0
 40
8.00117085085579
100
AcDbArc
 50
279.802206
 51
359.985559
  0
ARC
  5
246
330
234
100
AcDbEntity
  8
0
  6
Continuous
 62
     0
370
    30
100
AcDbCircle
 10
499.480193
 20
465.898937
 30
0.0
 40
8.00117085085582
100
AcDbArc
 50
0.014441
 51
80.197794
  0
LINE
  5
247
330
234
100
AcDbEntity
  8
0
  6
Continuous
 62
     0
370
     0
100
AcDbLine
 10
515.84409
 20
447.861684
 30
0.0
 11
515.84409
 21
460.042582
 31
0.0
  0
LINE
  5
248
330
234
100
AcDbEntity
  8
0
  6
Continuous
 62
     0
370
     0
100
AcDbLine
 10
515.84409
 20
441.114011
 30
0.0
 11
515.84409
 21
447.861684
 31
0.0
  0
LINE
  5
249
330
234
100
AcDbEntity
  8
0
  6
Continuous
 62
     0
370
    30
100
AcDbLine
 10
520.981364
 20
448.987344
 30
0.0
 11
520.634882
 21
448.044361
 31
0.0
  0
LINE
  5
24A
330
234
100
AcDbEntity
  8
0
  6
Continuous
 62
     0
370
     0
100
AcDbLine
 10
520.981363
 20
448.987344
 30
0.0
 11
520.981363
 21
462.22941
 31
0.0
  0
ARC
  5
24B
330
234
100
AcDbEntity
  8
0
  6
Continuous
 62
     0
370
    30
100
AcDbCircle
 10
521.697737
 20
463.238497
 30
0.0
 40
1.237517207961475
100
AcDbArc
 50
190.607515
 51
234.628209
  0
LINE
  5
24C
330
234
100
AcDbEntity
  8
0
  6
Continuous
 62
     0
370
     0
100
AcDbLine
 10
511.141665
 20
448.784277
 30
0.0
 11
511.141665
 21
456.8284
 31
0.0
  0
LINE
  5
24D
330
234
100
AcDbEntity
  8
0
  6
Continuous
 62
     0
370
     0
100
AcDbLine
 10
511.141665
 20
444.328193
 30
0.0
 11
511.141665
 21
448.784277
 31
0.0
  0
ELLIPSE
  5
24E
330
234
100
AcDbEntity
  8
0
  6
Continuous
 62
     0
370
     0
100
AcDbEllipse
 10
525.481366
 20
471.532144
 30
0.0
 11
-4.999999999979931
 21
6.549009873598842E-8
 31
0.0
210
0.0
220
0.0
230
1.0
 40
0.287038
 41
0.0000000456316194
 42
3.1415926992214
  0
LINE
  5
24F
330
234
100
AcDbEntity
  8
0
  6
Continuous
 62
     0
370
    30
100
AcDbLine
 10
530.481366
 20
463.031245
 30
0.0
 11
530.481366
 21
471.532144
 31
0.0
  0
LWPOLYLINE
  5
250
330
234
100
AcDbEntity
  8
0
  6
Continuous
 62
     0
370
    30
100
AcDbPolyline
 90
       24
 70
     0
 43
0.0
 10
520.981384
 20
462.229401
 10
521.264893
 20
461.990936
 10
521.60437
 20
461.752075
 10
521.995056
 20
461.519836
 10
522.432312
 20
461.301147
 10
522.911316
 20
461.102905
 10
523.426819
 20
460.93219
 10
523.972595
 20
460.795593
 10
524.541443
 20
460.698944
 10
525.125305
 20
460.646881
 10
525.714905
 20
460.641937
 10
526.300781
 20
460.684326
 10
526.873474
 20
460.772034
 10
527.424744
 20
460.900757
 10
527.947021
 20
461.064911
 10
528.434082
 20
461.257996
 10
528.880432
 20
461.473022
 10
529.281189
 20
461.703033
 10
529.631653
 20
461.94101
 10
529.927124
 20
462.180054
 10
530.163452
 20
462.413727
 10
530.33667
 20
462.635834
 10
530.443298
 20
462.840576
 10
530.481384
 20
463.03125
  0
ELLIPSE
  5
251
330
234
100
AcDbEntity
  8
0
  6
Continuous
 62
     0
370
     0
100
AcDbEllipse
 10
525.481366
 20
477.457732
 30
0.0
 11
-7.142857142828414
 21
9.355728390855413E-8
 31
0.0
210
0.0
220
0.0
230
1.0
 40
0.287038
 41
0.0000000456316229
 42
3.14159269922138
  0
ELLIPSE
  5
252
330
234
100
AcDbEntity
  8
0
  6
Continuous
 62
     0
370
     0
100
AcDbEllipse
 10
525.481366
 20
482.972439
 30
0.0
 11
-6.285714285688536
 21
8.233040983952150E-8
 31
0.0
210
0.0
220
0.0
230
1.0
 40
0.287038
 41
0.0000000456316149
 42
3.141592699221381
  0
ELLIPSE
  5
253
330
234
100
AcDbEntity
  8
0
  6
Continuous
 62
     0
370
     0
100
AcDbEllipse
 10
525.481366
 20
482.972439
 30
0.0
 11
-6.285714285688536
 21
8.233040983952150E-8
 31
0.0
210
0.0
220
0.0
230
1.0
 40
0.287038
 41
5.838319079370843
 42
6.283185352811201
  0
ELLIPSE
  5
254
330
234
100
AcDbEntity
  8
0
  6
Continuous
 62
     0
370
     0
100
AcDbEllipse
 10
525.481366
 20
482.972439
 30
0.0
 11
-6.285714285688536
 21
8.233040983952150E-8
 31
0.0
210
0.0
220
0.0
230
1.0
 40
0.287038
 41
3.1415926992214
 42
3.586458046682914
  0
ARC
  5
255
330
234
100
AcDbEntity
  8
0
  6
Continuous
 62
     0
370
    30
100
AcDbCircle
 10
525.49865
 20
446.974466
 30
0.0
 40
4.945457445202295
100
AcDbArc
 50
12.514525
 51
155.9825
  0
ELLIPSE
  5
256
330
234
100
AcDbEntity
  8
0
  6
Continuous
 62
     0
370
     0
100
AcDbEllipse
 10
525.481367
 20
440.871464
 30
0.0
 11
6.28571428568847
 21
9.169342511737681E-7
 31
0.0
210
0.0
220
0.0
230
1.0
 40
0.957919
 41
3.141592501305641
 42
6.283185154895419
  0
ELLIPSE
  5
257
330
234
100
AcDbEntity
  8
0
  6
Continuous
 62
     0
370
     0
100
AcDbEllipse
 10
525.481367
 20
440.871464
 30
0.0
 11
6.28571428568847
 21
9.169342511737681E-7
 31
0.0
210
0.0
220
0.0
230
1.0
 40
0.957919
 41
6.283185154895429
 42
9.424777808485228
  0
ELLIPSE
  5
258
330
234
100
AcDbEntity
  8
0
  6
Continuous
 62
     0
370
     0
100
AcDbEllipse
 10
525.481365
 20
429.624449
 30
0.0
 11
4.999999999979931
 21
-6.549009873598842E-8
 31
0.0
210
0.0
220
0.0
230
-1.0
 40
0.287038
 41
-0.0000000456316069
 42
3.141592607958186
  0
LINE
  5
259
330
234
100
AcDbEntity
  8
0
  6
Continuous
 62
     0
370
    30
100
AcDbLine
 10
530.481365
 20
435.699765
 30
0.0
 11
530.481365
 21
429.624449
 31
0.0
  0
ELLIPSE
  5
25A
330
234
100
AcDbEntity
  8
0
  6
Continuous
 62
     0
370
     0
100
AcDbEllipse
 10
525.481365
 20
423.698861
 30
0.0
 11
7.142857142828414
 21
-9.355728390855413E-8
 31
0.0
210
0.0
220
0.0
230
-1.0
 40
0.287038
 41
6.045028893823753
 42
6.283185261547963
  0
ELLIPSE
  5
25B
330
234
100
AcDbEntity
  8
0
  6
Continuous
 62
     0
370
     0
100
AcDbEllipse
 10
525.481365
 20
423.698861
 30
0.0
 11
7.142857142828414
 21
-9.355728390855413E-8
 31
0.0
210
0.0
220
0.0
230
-1.0
 40
0.287038
 41
3.141592607958186
 42
3.379748975682367
  0
ELLIPSE
  5
25C
330
234
100
AcDbEntity
  8
0
  6
Continuous
 62
     0
370
     0
100
AcDbEllipse
 10
525.481365
 20
423.698861
 30
0.0
 11
7.142857142828414
 21
-9.355728390855413E-8
 31
0.0
210
0.0
220
0.0
230
-1.0
 40
0.287038
 41
-0.0000000456316069
 42
3.141592607958186
  0
ELLIPSE
  5
25D
330
234
100
AcDbEntity
  8
0
  6
Continuous
 62
     0
370
     0
100
AcDbEllipse
 10
525.481365
 20
418.184154
 30
0.0
 11
6.285714285688536
 21
-8.233040983952150E-8
 31
0.0
210
0.0
220
0.0
230
-1.0
 40
0.287038
 41
0.444863702968253
 42
2.696730033268365
  0
LINE
  5
25E
330
234
100
AcDbEntity
  8
0
  6
Continuous
 62
     0
370
     0
100
AcDbLine
 10
537.481363
 20
463.096396
 30
0.0
 11
537.481363
 21
437.578293
 31
0.0
  0
LINE
  5
25F
330
234
100
AcDbEntity
  8
0
  6
Continuous
 62
     0
370
     0
100
AcDbLine
 10
537.481363
 20
463.5783
 30
0.0
 11
537.481363
 21
463.096396
 31
0.0
  0
LINE
  5
260
330
234
100
AcDbEntity
  8
0
  6
Continuous
 62
     0
370
    30
100
AcDbLine
 10
542.481363
 20
458.5783
 30
0.0
 11
542.481363
 21
458.281743
 31
0.0
  0
LINE
  5
261
330
234
100
AcDbEntity
  8
0
  6
Continuous
 62
     0
370
    30
100
AcDbLine
 10
542.481363
 20
458.281743
 30
0.0
 11
542.481363
 21
442.578293
 31
0.0
  0
LINE
  5
262
330
234
100
AcDbEntity
  8
0
  6
Continuous
 62
     0
370
    30
100
AcDbLine
 10
537.481363
 20
463.578297
 30
0.0
 11
530.481365
 21
463.578297
 31
0.0
  0
LINE
  5
263
330
234
100
AcDbEntity
  8
0
  6
Continuous
 62
     0
370
    30
100
AcDbLine
 10
537.481363
 20
437.578297
 30
0.0
 11
532.210205
 21
437.578297
 31
0.0
  0
ARC
  5
264
330
234
100
AcDbEntity
  8
0
  6
Continuous
 62
     0
370
    30
100
AcDbCircle
 10
537.480451
 20
442.579206
 30
0.0
 40
5.00091301470974
100
AcDbArc
 50
270.01046
 51
359.98954
  0
ARC
  5
265
330
234
100
AcDbEntity
  8
0
  6
Continuous
 62
     0
370
    30
100
AcDbCircle
 10
537.480451
 20
458.577387
 30
0.0
 40
5.000913014709697
100
AcDbArc
 50
0.01046
 51
89.98954
  0
ARC
  5
266
330
234
100
AcDbEntity
  8
0
  6
Continuous
 62
     0
370
    30
100
AcDbCircle
 10
525.481365
 20
426.832238
 30
0.0
 40
11.00067325499617
100
AcDbArc
 50
238.950472
 51
301.049543
  0
ARC
  5
267
330
234
100
AcDbEntity
  8
0
  6
Continuous
 62
     0
370
    30
100
AcDbCircle
 10
521.930284
 20
421.310778
 30
0.0
 40
4.443001689205722
100
AcDbArc
 50
139.732487
 51
241.458639
  0
ARC
  5
268
330
234
100
AcDbEntity
  8
0
  6
Continuous
 62
     0
370
    30
100
AcDbCircle
 10
529.06183
 20
421.312405
 30
0.0
 40
4.419564941045591
100
AcDbArc
 50
0.210293
 51
40.497636
  0
ARC
  5
269
330
234
100
AcDbEntity
  8
0
  6
Continuous
 62
     0
370
    30
100
AcDbCircle
 10
528.905374
 20
421.392914
 30
0.0
 40
4.576442700446517
100
AcDbArc
 50
299.447654
 51
359.195117
  0
ARC
  5
26A
330
234
100
AcDbEntity
  8
0
  6
Continuous
 62
     0
370
    30
100
AcDbCircle
 10
512.011174
 20
429.578757
 30
0.0
 40
8.470314314062735
100
AcDbArc
 50
320.426056
 51
0.309074
  0
ARC
  5
26B
330
234
100
AcDbEntity
  8
0
  6
Continuous
 62
     0
370
    30
100
AcDbCircle
 10
538.951556
 20
429.578757
 30
0.0
 40
8.470314352427494
100
AcDbArc
 50
179.690923
 51
219.57394
  0
LINE
  5
26C
330
234
100
AcDbEntity
  8
0
  6
Continuous
 62
     0
370
    30
100
AcDbLine
 10
520.481365
 20
435.701172
 30
0.0
 11
520.481365
 21
429.624449
 31
0.0
  0
CIRCLE
  5
26D
330
234
100
AcDbEntity
  8
0
  6
Continuous
 62
     0
370
    30
100
AcDbCircle
 10
525.493408
 20
441.82142
 30
0.0
 40
7.923577789830267
  0
ARC
  5
26E
330
234
100
AcDbEntity
  8
0
  6
Continuous
 62
     0
370
    30
100
AcDbCircle
 10
525.481366
 20
474.324355
 30
0.0
 40
11.00067325499684
100
AcDbArc
 50
58.950457
 51
121.049528
  0
ARC
  5
26F
330
234
100
AcDbEntity
  8
0
  6
Continuous
 62
     0
370
    30
100
AcDbCircle
 10
521.930284
 20
479.845816
 30
0.0
 40
4.443001668902964
100
AcDbArc
 50
118.541363
 51
220.267515
  0
ARC
  5
270
330
234
100
AcDbEntity
  8
0
  6
Continuous
 62
     0
370
    30
100
AcDbCircle
 10
529.061831
 20
479.844188
 30
0.0
 40
4.419564918462786
100
AcDbArc
 50
319.502366
 51
359.789709
  0
ARC
  5
271
330
234
100
AcDbEntity
  8
0
  6
Continuous
 62
     0
370
    30
100
AcDbCircle
 10
528.905375
 20
479.76368
 30
0.0
 40
4.576442757846367
100
AcDbArc
 50
0.804885
 51
60.552347
  0
ARC
  5
272
330
234
100
AcDbEntity
  8
0
  6
Continuous
 62
     0
370
    30
100
AcDbCircle
 10
512.011175
 20
471.577837
 30
0.0
 40
8.47031435242738
100
AcDbArc
 50
359.690923
 51
39.57394
  0
ARC
  5
273
330
234
100
AcDbEntity
  8
0
  6
Continuous
 62
     0
370
    30
100
AcDbCircle
 10
538.951557
 20
471.577836
 30
0.0
 40
8.470314314063021
100
AcDbArc
 50
140.426056
 51
180.309074
  0
LINE
  5
274
330
234
100
AcDbEntity
  8
0
  6
Continuous
 62
     0
370
    30
100
AcDbLine
 10
520.481366
 20
463.00943
 30
0.0
 11
520.481366
 21
471.532144
 31
0.0
  0
ARC
  5
275
330
234
100
AcDbEntity
  8
0
  6
Continuous
 62
     0
370
    30
100
AcDbCircle
 10
525.298506
 20
459.283529
 30
0.0
 40
7.829246776864563
100
AcDbArc
 50
127.971926
 51
152.376464
  0
ARC
  5
276
330
234
100
AcDbEntity
  8
0
  6
Continuous
 62
     0
370
    30
100
AcDbCircle
 10
525.619864
 20
459.24792
 30
0.0
 40
7.885729966406757
100
AcDbArc
 50
33.308098
 51
51.93949
  0
LINE
  5
277
330
234
100
AcDbEntity
  8
0
  6
Continuous
 62
     0
370
    30
100
AcDbLine
 10
511.141665
 20
444.328193
 30
0.0
 11
507.481363
 21
444.316416
 31
0.0
  0
LINE
  5
278
330
234
100
AcDbEntity
  8
0
  6
Continuous
 62
     0
370
    30
100
AcDbLine
 10
511.141665
 20
456.8284
 30
0.0
 11
507.481363
 21
456.840178
 31
0.0
  0
ARC
  5
279
330
234
100
AcDbEntity
  8
0
  6
Continuous
 62
     0
370
    30
100
AcDbCircle
 10
511.175311
 20
439.330448
 30
0.0
 40
4.997858748698023
100
AcDbArc
 50
20.907819
 51
90.385724
  0
ARC
  5
27A
330
234
100
AcDbEntity
  8
0
  6
Continuous
 62
     0
370
    30
100
AcDbCircle
 10
511.175311
 20
461.826146
 30
0.0
 40
4.997858748697858
100
AcDbArc
 50
269.614276
 51
339.092181
  0
ARC
  5
27B
330
234
100
AcDbEntity
  8
0
  6
Continuous
 62
     0
370
    30
100
AcDbCircle
 10
520.976572
 20
458.083286
 30
0.0
 40
5.493743309181195
100
AcDbArc
 50
95.171668
 51
159.105928
  0
ARC
  5
27C
330
234
100
AcDbEntity
  8
0
  6
Continuous
 62
     0
370
    30
100
AcDbCircle
 10
520.974526
 20
443.073484
 30
0.0
 40
5.491894552792512
100
AcDbArc
 50
200.903409
 51
241.591032
  0
ENDBLK
  5
27E
330
234
100
AcDbEntity
  8
0
100
AcDbBlockEnd
  0
BLOCK
  5
36D
330
280
100
AcDbEntity
  8
0
100
AcDbBlockBegin
  2
d
 70
     0
 10
89.706009
 20
167.540405
 30
0.0
  3
d
  1

  0
ELLIPSE
  5
281
330
280
100
AcDbEntity
  8
0
  6
Continuous
 62
     0
370
     0
100
AcDbEllipse
 10
521.902555
 20
216.95218
 30
0.0
 11
-7.660813358843407
 21
-13.26891796481916
 31
0.0
210
0.0
220
0.0
230
-1.0
 40
0.57735
 41
0.7853981633974485
 42
2.232342759105374
  0
ELLIPSE
  5
282
330
280
100
AcDbEntity
  8
0
  6
Continuous
 62
     0
370
     0
100
AcDbEllipse
 10
521.902555
 20
216.95218
 30
0.0
 11
-7.660813358843407
 21
-13.26891796481916
 31
0.0
210
0.0
220
0.0
230
-1.0
 40
0.57735
 41
5.550455561271837
 42
7.068583470577035
  0
ELLIPSE
  5
283
330
280
100
AcDbEntity
  8
0
  6
Continuous
 62
     0
370
     0
100
AcDbEllipse
 10
517.208079
 20
219.662537
 30
0.0
 11
-11.60250260865466
 21
-20.0961240131403
 31
0.0
210
0.0
220
0.0
230
-1.0
 40
0.57735
 41
0.7853981633974485
 42
3.263981249435274
  0
ELLIPSE
  5
284
330
280
100
AcDbEntity
  8
0
  6
Continuous
 62
     0
370
     0
100
AcDbEllipse
 10
517.208079
 20
219.662537
 30
0.0
 11
-11.60250260865466
 21
-20.0961240131403
 31
0.0
210
0.0
220
0.0
230
-1.0
 40
0.57735
 41
6.160803131290202
 42
7.068583470577035
  0
ELLIPSE
  5
285
330
280
100
AcDbEntity
  8
0
  6
Continuous
 62
     0
370
     0
100
AcDbEllipse
 10
500.323002
 20
229.411141
 30
0.0
 11
-13.66377993465459
 21
-23.66636107026189
 31
0.0
210
0.0
220
0.0
230
-1.0
 40
0.57735
 41
0.7853981633974486
 42
3.263975277106897
  0
ELLIPSE
  5
286
330
280
100
AcDbEntity
  8
0
  6
Continuous
 62
     0
370
     0
100
AcDbEllipse
 10
500.323002
 20
229.411141
 30
0.0
 11
-13.66377993465459
 21
-23.66636107026189
 31
0.0
210
0.0
220
0.0
230
-1.0
 40
0.57735
 41
6.160802901009468
 42
7.068583470577035
  0
ELLIPSE
  5
287
330
280
100
AcDbEntity
  8
0
  6
Continuous
 62
     0
370
     0
100
AcDbEllipse
 10
496.787283
 20
231.452489
 30
0.0
 11
-15.00218031633787
 21
-25.98453853220692
 31
0.0
210
0.0
220
0.0
230
-1.0
 40
0.57735
 41
0.785398163397448
 42
3.613435817001328
  0
ELLIPSE
  5
288
330
280
100
AcDbEntity
  8
0
  6
Continuous
 62
     0
370
     0
100
AcDbEllipse
 10
496.787283
 20
231.452489
 30
0.0
 11
-15.00218031633787
 21
-25.98453853220692
 31
0.0
210
0.0
220
0.0
230
-1.0
 40
0.57735
 41
5.811342189468354
 42
7.068583470577035
  0
ELLIPSE
  5
289
330
280
100
AcDbEntity
  8
0
  6
Continuous
 62
     0
370
    30
100
AcDbEllipse
 10
492.628334
 20
233.853659
 30
0.0
 11
-16.24999999993461
 21
-28.145825622881
 31
0.0
210
0.0
220
0.0
230
-1.0
 40
0.57735
 41
0.7853981633974482
 42
3.134879088850744
  0
ELLIPSE
  5
28A
330
280
100
AcDbEntity
  8
0
  6
Continuous
 62
     0
370
    30
100
AcDbEllipse
 10
492.628334
 20
233.853659
 30
0.0
 11
-16.24999999993461
 21
-28.145825622881
 31
0.0
210
0.0
220
0.0
230
-1.0
 40
0.57735
 41
0.0067139403431336
 42
0.7853981633974482
  0
ARC
  5
28B
330
280
100
AcDbEntity
  8
0
  6
Continuous
 62
     0
370
    30
100
AcDbCircle
 10
485.151224
 20
221.473105
 30
0.0
 40
18.03953999613574
100
AcDbArc
 50
240.505362
 51
287.468503
  0
ARC
  5
28C
330
280
100
AcDbEntity
  8
0
  6
Continuous
 62
     0
370
    30
100
AcDbCircle
 10
499.613886
 20
246.521457
 30
0.0
 40
18.03655095254799
100
AcDbArc
 50
12.527881
 51
59.497273
  0
LINE
  5
28D
330
280
100
AcDbEntity
  8
0
  6
Continuous
 62
     0
370
    30
100
AcDbLine
 10
507.108752
 20
198.898962
 30
0.0
 11
488.429449
 21
204.95875
 31
0.0
  0
LINE
  5
28E
330
280
100
AcDbEntity
  8
0
  6
Continuous
 62
     0
370
    30
100
AcDbLine
 10
530.1402
 20
238.790597
 30
0.0
 11
515.552617
 21
251.937454
 31
0.0
  0
ARC
  5
28F
330
280
100
AcDbEntity
  8
0
  6
Continuous
 62
     0
370
    30
100
AcDbCircle
 10
520.893744
 20
228.568643
 30
0.0
 40
13.78351536808606
100
AcDbArc
 50
34.025182
 51
47.868854
  0
LINE
  5
290
330
280
100
AcDbEntity
  8
0
  6
Continuous
 62
     0
370
    30
100
AcDbLine
 10
535.063185
 20
225.605422
 30
0.0
 11
535.079727
 21
226.473194
 31
0.0
  0
LWPOLYLINE
  5
291
330
280
100
AcDbEntity
  8
0
  6
Continuous
 62
     0
370
    30
100
AcDbPolyline
 90
       10
 70
     0
 43
0.0
 10
507.108765
 20
198.898956
 10
507.979187
 20
198.6492
 10
508.865234
 20
198.458237
 10
509.762482
 20
198.3255
 10
510.666443
 20
198.250412
 10
511.572693
 20
198.232361
 10
512.477722
 20
198.270218
 10
513.379578
 20
198.36203
 10
514.276367
 20
198.505722
 10
515.2854
 20
198.728989
  0
ELLIPSE
  5
292
330
280
100
AcDbEntity
  8
0
  6
Continuous
 62
     0
370
     0
100
AcDbEllipse
 10
599.684301
 20
261.859492
 30
0.0
 11
-7.660813358843368
 21
-13.2689179648191
 31
0.0
210
0.0
220
0.0
230
-1.0
 40
0.57735
 41
0.7853981633974482
 42
3.88558319861004
  0
ELLIPSE
  5
293
330
280
100
AcDbEntity
  8
0
  6
Continuous
 62
     0
370
     0
100
AcDbEllipse
 10
599.684301
 20
261.859492
 30
0.0
 11
-7.660813358843368
 21
-13.2689179648191
 31
0.0
210
0.0
220
0.0
230
-1.0
 40
0.57735
 41
5.550455561271794
 42
7.068583470577035
  0
ELLIPSE
  5
294
330
280
100
AcDbEntity
  8
0
  6
Continuous
 62
     0
370
     0
100
AcDbEllipse
 10
594.989825
 20
264.569849
 30
0.0
 11
-11.60250260865454
 21
-20.09612401314011
 31
0.0
210
0.0
220
0.0
230
-1.0
 40
0.57735
 41
0.7853981633974483
 42
3.263981247173965
  0
ELLIPSE
  5
295
330
280
100
AcDbEntity
  8
0
  6
Continuous
 62
     0
370
     0
100
AcDbEllipse
 10
594.989825
 20
264.569849
 30
0.0
 11
-11.60250260865454
 21
-20.09612401314011
 31
0.0
210
0.0
220
0.0
230
-1.0
 40
0.57735
 41
6.160803151914167
 42
7.068583470577035
  0
ELLIPSE
  5
296
330
280
100
AcDbEntity
  8
0
  6
Continuous
 62
     0
370
     0
100
AcDbEllipse
 10
578.104748
 20
274.318453
 30
0.0
 11
-13.66377993465459
 21
-23.66636107026191
 31
0.0
210
0.0
220
0.0
230
-1.0
 40
0.57735
 41
0.7853981633974484
 42
3.263975190692352
  0
ELLIPSE
  5
297
330
280
100
AcDbEntity
  8
0
  6
Continuous
 62
     0
370
     0
100
AcDbEllipse
 10
578.104748
 20
274.318453
 30
0.0
 11
-13.66377993465459
 21
-23.66636107026191
 31
0.0
210
0.0
220
0.0
230
-1.0
 40
0.57735
 41
6.160802868901598
 42
7.068583470577035
  0
ELLIPSE
  5
298
330
280
100
AcDbEntity
  8
0
  6
Continuous
 62
     0
370
     0
100
AcDbEllipse
 10
574.569028
 20
276.359801
 30
0.0
 11
-15.00218031633807
 21
-25.98453853220726
 31
0.0
210
0.0
220
0.0
230
-1.0
 40
0.57735
 41
0.7853981633974484
 42
3.613435817001389
  0
ELLIPSE
  5
299
330
280
100
AcDbEntity
  8
0
  6
Continuous
 62
     0
370
     0
100
AcDbEllipse
 10
574.569028
 20
276.359801
 30
0.0
 11
-15.00218031633807
 21
-25.98453853220726
 31
0.0
210
0.0
220
0.0
230
-1.0
 40
0.57735
 41
5.811342189468302
 42
7.068583470577035
  0
ELLIPSE
  5
29A
330
280
100
AcDbEntity
  8
0
  6
Continuous
 62
     0
370
    30
100
AcDbEllipse
 10
570.41008
 20
278.760971
 30
0.0
 11
-16.24999999993453
 21
-28.14582562288086
 31
0.0
210
0.0
220
0.0
230
-1.0
 40
0.57735
 41
0.7853981633974483
 42
3.134879279712888
  0
ELLIPSE
  5
29B
330
280
100
AcDbEntity
  8
0
  6
Continuous
 62
     0
370
    30
100
AcDbEllipse
 10
570.41008
 20
278.760971
 30
0.0
 11
-16.24999999993453
 21
-28.14582562288086
 31
0.0
210
0.0
220
0.0
230
-1.0
 40
0.57735
 41
0.0067139419212536
 42
0.7853981633974483
  0
ARC
  5
29C
330
280
100
AcDbEntity
  8
0
  6
Continuous
 62
     0
370
    30
100
AcDbCircle
 10
562.93297
 20
266.380417
 30
0.0
 40
18.03953999613605
100
AcDbArc
 50
240.505362
 51
287.468503
  0
ARC
  5
29D
330
280
100
AcDbEntity
  8
0
  6
Continuous
 62
     0
370
    30
100
AcDbCircle
 10
577.395632
 20
291.428769
 30
0.0
 40
18.03655095254826
100
AcDbArc
 50
12.527881
 51
59.497273
  0
LINE
  5
29E
330
280
100
AcDbEntity
  8
0
  6
Continuous
 62
     0
370
    30
100
AcDbLine
 10
584.890498
 20
243.806274
 30
0.0
 11
566.211195
 21
249.866062
 31
0.0
  0
LINE
  5
29F
330
280
100
AcDbEntity
  8
0
  6
Continuous
 62
     0
370
    30
100
AcDbLine
 10
607.921945
 20
283.697909
 30
0.0
 11
593.334363
 21
296.844766
 31
0.0
  0
ARC
  5
2A0
330
280
100
AcDbEntity
  8
0
  6
Continuous
 62
     0
370
    30
100
AcDbCircle
 10
596.657223
 20
272.031398
 30
0.0
 40
16.21731677172831
100
AcDbArc
 50
357.699781
 51
46.0041
  0
LINE
  5
2A1
330
280
100
AcDbEntity
  8
0
  6
Continuous
 62
     0
370
    30
100
AcDbLine
 10
612.699045
 20
268.624482
 30
0.0
 11
612.861473
 21
271.380506
 31
0.0
  0
LWPOLYLINE
  5
2A2
330
280
100
AcDbEntity
  8
0
  6
Continuous
 62
     0
370
    30
100
AcDbPolyline
 90
       10
 70
     0
 43
0.0
 10
584.890503
 20
243.806274
 10
585.760925
 20
243.556519
 10
586.646973
 20
243.365555
 10
587.54425
 20
243.232819
 10
588.448181
 20
243.15773
 10
589.354431
 20
243.139664
 10
590.259521
 20
243.177536
 10
591.161316
 20
243.269348
 10
592.058105
 20
243.413025
 10
593.0672
 20
243.636307
  0
ELLIPSE
  5
2A3
330
280
100
AcDbEntity
  8
0
  6
Continuous
 62
     0
370
     0
100
AcDbEllipse
 10
677.466047
 20
306.766804
 30
0.0
 11
-7.660813358814353
 21
-13.26891796476884
 31
0.0
210
0.0
220
0.0
230
-1.0
 40
0.57735
 41
0.7853981633974475
 42
2.232342759105419
  0
ELLIPSE
  5
2A4
330
280
100
AcDbEntity
  8
0
  6
Continuous
 62
     0
370
     0
100
AcDbEllipse
 10
677.466047
 20
306.766804
 30
0.0
 11
-7.660813358814353
 21
-13.26891796476884
 31
0.0
210
0.0
220
0.0
230
-1.0
 40
0.57735
 41
5.550455561261262
 42
7.068583470577034
  0
ELLIPSE
  5
2A5
330
280
100
AcDbEntity
  8
0
  6
Continuous
 62
     0
370
     0
100
AcDbEllipse
 10
672.771571
 20
309.477161
 30
0.0
 11
-11.60250260865472
 21
-20.09612401314041
 31
0.0
210
0.0
220
0.0
230
-1.0
 40
0.57735
 41
0.7853981633974483
 42
3.263981255842067
  0
ELLIPSE
  5
2A6
330
280
100
AcDbEntity
  8
0
  6
Continuous
 62
     0
370
     0
100
AcDbEllipse
 10
672.771571
 20
309.477161
 30
0.0
 11
-11.60250260865472
 21
-20.09612401314041
 31
0.0
210
0.0
220
0.0
230
-1.0
 40
0.57735
 41
6.160803039712877
 42
7.068583470577035
  0
ELLIPSE
  5
2A7
330
280
100
AcDbEntity
  8
0
  6
Continuous
 62
     0
370
     0
100
AcDbEllipse
 10
655.886494
 20
319.225764
 30
0.0
 11
-13.66377993465468
 21
-23.66636107026206
 31
0.0
210
0.0
220
0.0
230
-1.0
 40
0.57735
 41
0.7853981633974483
 42
3.263975361584196
  0
ELLIPSE
  5
2A8
330
280
100
AcDbEntity
  8
0
  6
Continuous
 62
     0
370
     0
100
AcDbEllipse
 10
655.886494
 20
319.225764
 30
0.0
 11
-13.66377993465468
 21
-23.66636107026206
 31
0.0
210
0.0
220
0.0
230
-1.0
 40
0.57735
 41
6.16080295327753
 42
7.068583470577035
  0
ELLIPSE
  5
2A9
330
280
100
AcDbEntity
  8
0
  6
Continuous
 62
     0
370
     0
100
AcDbEllipse
 10
652.350775
 20
321.267113
 30
0.0
 11
-15.00218031633781
 21
-25.98453853220681
 31
0.0
210
0.0
220
0.0
230
-1.0
 40
0.57735
 41
0.7853981633974483
 42
3.613435817001303
  0
ELLIPSE
  5
2AA
330
280
100
AcDbEntity
  8
0
  6
Continuous
 62
     0
370
     0
100
AcDbEllipse
 10
652.350775
 20
321.267113
 30
0.0
 11
-15.00218031633781
 21
-25.98453853220681
 31
0.0
210
0.0
220
0.0
230
-1.0
 40
0.57735
 41
5.811342189468384
 42
7.068583470577035
  0
ELLIPSE
  5
2AB
330
280
100
AcDbEntity
  8
0
  6
Continuous
 62
     0
370
    30
100
AcDbEllipse
 10
648.191826
 20
323.668283
 30
0.0
 11
-16.24999999993584
 21
-28.14582562288313
 31
0.0
210
0.0
220
0.0
230
-1.0
 40
0.57735
 41
0.7853981633974483
 42
3.134879287159948
  0
ELLIPSE
  5
2AC
330
280
100
AcDbEntity
  8
0
  6
Continuous
 62
     0
370
    30
100
AcDbEllipse
 10
648.191826
 20
323.668283
 30
0.0
 11
-16.24999999993584
 21
-28.14582562288313
 31
0.0
210
0.0
220
0.0
230
-1.0
 40
0.57735
 41
0.0067135564037532
 42
0.7853981633974483
  0
ARC
  5
2AD
330
280
100
AcDbEntity
  8
0
  6
Continuous
 62
     0
370
    30
100
AcDbCircle
 10
640.714716
 20
311.287729
 30
0.0
 40
18.03953999613623
100
AcDbArc
 50
240.505362
 51
287.468503
  0
ARC
  5
2AE
330
280
100
AcDbEntity
  8
0
  6
Continuous
 62
     0
370
    30
100
AcDbCircle
 10
655.177378
 20
336.336081
 30
0.0
 40
18.03655095254883
100
AcDbArc
 50
12.527881
 51
59.497273
  0
LINE
  5
2AF
330
280
100
AcDbEntity
  8
0
  6
Continuous
 62
     0
370
    30
100
AcDbLine
 10
662.672244
 20
288.713585
 30
0.0
 11
643.992941
 21
294.773374
 31
0.0
  0
LINE
  5
2B0
330
280
100
AcDbEntity
  8
0
  6
Continuous
 62
     0
370
    30
100
AcDbLine
 10
685.703692
 20
328.605221
 30
0.0
 11
671.116109
 21
341.752078
 31
0.0
  0
ARC
  5
2B1
330
280
100
AcDbEntity
  8
0
  6
Continuous
 62
     0
370
    30
100
AcDbCircle
 10
676.457236
 20
318.383267
 30
0.0
 40
13.7835153681013
100
AcDbArc
 50
34.025182
 51
47.868854
  0
LINE
  5
2B2
330
280
100
AcDbEntity
  8
0
  6
Continuous
 62
     0
370
    30
100
AcDbLine
 10
690.626677
 20
315.420046
 30
0.0
 11
690.643219
 21
316.287818
 31
0.0
  0
LWPOLYLINE
  5
2B3
330
280
100
AcDbEntity
  8
0
  6
Continuous
 62
     0
370
    30
100
AcDbPolyline
 90
       10
 70
     0
 43
0.0
 10
662.672241
 20
288.713593
 10
663.542664
 20
288.463837
 10
664.428711
 20
288.272858
 10
665.325989
 20
288.140137
 10
666.229919
 20
288.065033
 10
667.136169
 20
288.046997
 10
668.04126
 20
288.084839
 10
668.943054
 20
288.176666
 10
669.839844
 20
288.320343
 10
670.848938
 20
288.54361
  0
ELLIPSE
  5
2B4
330
280
100
AcDbEntity
  8
0
  6
Continuous
 62
     0
370
     0
100
AcDbEllipse
 10
687.011988
 20
301.255452
 30
0.0
 11
-6.499999999974054
 21
-11.25833024915276
 31
0.0
210
0.0
220
0.0
230
-1.0
 40
0.57735
 41
0.6785303102211975
 42
1.832034531038085
  0
ELLIPSE
  5
2B5
330
280
100
AcDbEntity
  8
0
  6
Continuous
 62
     0
370
     0
100
AcDbEllipse
 10
687.011988
 20
301.255452
 30
0.0
 11
-6.499999999974054
 21
-11.25833024915276
 31
0.0
210
0.0
220
0.0
230
-1.0
 40
0.57735
 41
2.834008385929911
 42
3.141592676439948
  0
ELLIPSE
  5
2B6
330
280
100
AcDbEntity
  8
0
  6
Continuous
 62
     0
370
     0
100
AcDbEllipse
 10
680.054271
 20
305.272492
 30
0.0
 11
-3.125051764878465
 21
-5.412748433052289
 31
0.0
210
0.0
220
0.0
230
-1.0
 40
0.57735
 41
0.4942645528313939
 42
2.678732091861697
  0
ELLIPSE
  5
2B7
330
280
100
AcDbEntity
  8
0
  6
Continuous
 62
     0
370
     0
100
AcDbEllipse
 10
680.054271
 20
305.272492
 30
0.0
 11
-3.125051764878465
 21
-5.412748433052289
 31
0.0
210
0.0
220
0.0
230
-1.0
 40
0.57735
 41
0.1963385387918098
 42
0.4942645528313939
  0
ELLIPSE
  5
2B8
330
280
100
AcDbEntity
  8
0
  6
Continuous
 62
     0
370
    30
100
AcDbEllipse
 10
677.466047
 20
306.766804
 30
0.0
 11
-3.130940496485168
 21
-5.422948015387234
 31
0.0
210
0.0
220
0.0
230
-1.0
 40
0.57735
 41
0.4942645528313924
 42
3.378022089959247
  0
ELLIPSE
  5
2B9
330
280
100
AcDbEntity
  8
0
  6
Continuous
 62
     0
370
    30
100
AcDbEllipse
 10
677.466047
 20
306.766804
 30
0.0
 11
-3.130940496485168
 21
-5.422948015387234
 31
0.0
210
0.0
220
0.0
230
-1.0
 40
0.57735
 41
5.854579442978571
 42
6.777449860010979
  0
ELLIPSE
  5
2BA
330
280
100
AcDbEntity
  8
0
  6
Continuous
 62
     0
370
     0
100
AcDbEllipse
 10
705.010578
 20
313.099303
 30
0.0
 11
-3.391949458402222
 21
3.673510428928191
 31
0.0
210
0.0
220
0.0
230
-1.0
 40
0.387333
 41
-0.0000000256045158
 42
2.464879024606776
  0
ELLIPSE
  5
2BB
330
280
100
AcDbEntity
  8
0
  6
Continuous
 62
     0
370
     0
100
AcDbEllipse
 10
705.010578
 20
313.099303
 30
0.0
 11
-3.391949458402222
 21
3.673510428928191
 31
0.0
210
0.0
220
0.0
230
-1.0
 40
0.387333
 41
2.464879024606832
 42
3.141592627985344
  0
ELLIPSE
  5
2BC
330
280
100
AcDbEntity
  8
0
  6
Continuous
 62
     0
370
     0
100
AcDbEllipse
 10
709.200601
 20
316.968177
 30
0.0
 11
-4.845642083431707
 21
5.247872041325944
 31
0.0
210
0.0
220
0.0
230
-1.0
 40
0.387333
 41
5.946070761502987
 42
8.748064331786361
  0
ELLIPSE
  5
2BD
330
280
100
AcDbEntity
  8
0
  6
Continuous
 62
     0
370
     0
100
AcDbEllipse
 10
709.200601
 20
316.968177
 30
0.0
 11
-4.845642083431707
 21
5.247872041325944
 31
0.0
210
0.0
220
0.0
230
-1.0
 40
0.387333
 41
2.464879024606779
 42
3.47870715159164
  0
ELLIPSE
  5
2BE
330
280
100
AcDbEntity
  8
0
  6
Continuous
 62
     0
370
     0
100
AcDbEllipse
 10
713.100088
 20
320.568783
 30
0.0
 11
-4.264165033419585
 21
4.618127396366487
 31
0.0
210
0.0
220
0.0
230
-1.0
 40
0.387333
 41
0.6477011967589273
 42
2.464879024606775
  0
ELLIPSE
  5
2BF
330
280
100
AcDbEntity
  8
0
  6
Continuous
 62
     0
370
     0
100
AcDbEllipse
 10
713.100088
 20
320.568783
 30
0.0
 11
-4.264165033419585
 21
4.618127396366487
 31
0.0
210
0.0
220
0.0
230
-1.0
 40
0.387333
 41
2.46487902460678
 42
2.493890882581305
  0
ELLIPSE
  5
2C0
330
280
100
AcDbEntity
  8
0
  6
Continuous
 62
     0
370
     0
100
AcDbEllipse
 10
685.754207
 20
313.96378
 30
0.0
 11
-4.782187518897425
 21
-1.459685765464951
 31
0.0
210
0.0
220
0.0
230
1.0
 40
0.718777
 41
6.120687387634542
 42
8.44489603236471
  0
ELLIPSE
  5
2C1
330
280
100
AcDbEntity
  8
0
  6
Continuous
 62
     0
370
     0
100
AcDbEllipse
 10
685.754207
 20
313.96378
 30
0.0
 11
-4.782187518897425
 21
-1.459685765464951
 31
0.0
210
0.0
220
0.0
230
1.0
 40
0.718777
 41
2.161710725185143
 42
3.304159314188309
  0
LINE
  5
2C2
330
280
100
AcDbEntity
  8
0
  6
Continuous
 62
     0
370
    30
100
AcDbLine
 10
691.090937
 20
306.021504
 30
0.0
 11
691.245985
 21
306.168688
 31
0.0
  0
LWPOLYLINE
  5
2C3
330
280
100
AcDbEntity
  8
0
  6
Continuous
 62
     0
370
    30
100
AcDbPolyline
 90
        9
 70
     0
 43
0.0
 10
691.245972
 20
306.168701
 10
691.60022
 20
306.540741
 10
691.903687
 20
306.915649
 10
692.152222
 20
307.289001
 10
692.342773
 20
307.657654
 10
692.472839
 20
308.018738
 10
692.540405
 20
308.370331
 10
692.544495
 20
308.711456
 10
692.47467
 20
309.073242
  0
LWPOLYLINE
  5
2C4
330
280
100
AcDbEntity
  8
0
  6
Continuous
 62
     0
370
    30
100
AcDbPolyline
 90
       19
 70
     0
 43
0.0
 10
682.908447
 20
306.160095
 10
683.087769
 20
305.689697
 10
683.330994
 20
305.254669
 10
683.63446
 20
304.864441
 10
683.993896
 20
304.527985
 10
684.403259
 20
304.252625
 10
684.855652
 20
304.043823
 10
685.343384
 20
303.904175
 10
685.858765
 20
303.83371
 10
686.394287
 20
303.830231
 10
686.943359
 20
303.890045
 10
687.499695
 20
304.008484
 10
688.057678
 20
304.180359
 10
688.61145
 20
304.400421
 10
689.155212
 20
304.663208
 10
689.68219
 20
304.96283
 10
690.185303
 20
305.293213
 10
690.657227
 20
305.648102
 10
691.090942
 20
306.021515
  0
ELLIPSE
  5
2C5
330
280
100
AcDbEntity
  8
0
  6
Continuous
 62
     0
370
     0
100
AcDbEllipse
 10
684.498676
 20
318.077121
 30
0.0
 11
-6.831696455567695
 21
-2.085265379235627
 31
0.0
210
0.0
220
0.0
230
1.0
 40
0.718777
 41
0.9509149035841515
 42
2.161710725185104
  0
ELLIPSE
  5
2C6
330
280
100
AcDbEntity
  8
0
  6
Continuous
 62
     0
370
     0
100
AcDbEllipse
 10
684.498676
 20
318.077121
 30
0.0
 11
-6.831696455567695
 21
-2.085265379235627
 31
0.0
210
0.0
220
0.0
230
1.0
 40
0.718777
 41
2.161710725185124
 42
2.190695146317193
  0
ELLIPSE
  5
2C7
330
280
100
AcDbEntity
  8
0
  6
Continuous
 62
     0
370
     0
100
AcDbEllipse
 10
683.330203
 20
321.905243
 30
0.0
 11
-6.011892880899124
 21
-1.835033533727215
 31
0.0
210
0.0
220
0.0
230
1.0
 40
0.718777
 41
5.303303378774935
 42
8.444896032364692
  0
ELLIPSE
  5
2C8
330
280
100
AcDbEntity
  8
0
  6
Continuous
 62
     0
370
     0
100
AcDbEllipse
 10
683.330203
 20
321.905243
 30
0.0
 11
-6.011892880899124
 21
-1.835033533727215
 31
0.0
210
0.0
220
0.0
230
1.0
 40
0.718777
 41
2.161710725185126
 42
5.303303378774935
  0
ELLIPSE
  5
2C9
330
280
100
AcDbEntity
  8
0
  6
Continuous
 62
     0
370
     0
100
AcDbEllipse
 10
675.377362
 20
285.737364
 30
0.0
 11
3.391949458402222
 21
-3.673510428928191
 31
0.0
210
0.0
220
0.0
230
1.0
 40
0.387333
 41
0.0000000256044519
 42
0.6767136289830074
  0
ELLIPSE
  5
2CA
330
280
100
AcDbEntity
  8
0
  6
Continuous
 62
     0
370
     0
100
AcDbEllipse
 10
675.377362
 20
285.737364
 30
0.0
 11
3.391949458402222
 21
-3.673510428928191
 31
0.0
210
0.0
220
0.0
230
1.0
 40
0.387333
 41
0.6767136289830198
 42
3.141592789984377
  0
LWPOLYLINE
  5
2CB
330
280
100
AcDbEntity
  8
0
  6
Continuous
 62
     0
370
    30
100
AcDbPolyline
 90
       21
 70
     0
 43
0.0
 10
684.92395
 20
289.246429
 10
684.780762
 20
289.683838
 10
684.605347
 20
290.163086
 10
684.399719
 20
290.674591
 10
684.165588
 20
291.208099
 10
683.904297
 20
291.753113
 10
683.616882
 20
292.299194
 10
683.303772
 20
292.836151
 10
682.96521
 20
293.35376
 10
682.601685
 20
293.841827
 10
682.214417
 20
294.289917
 10
681.805786
 20
294.68811
 10
681.379639
 20
295.026794
 10
680.941956
 20
295.298492
 10
680.500244
 20
295.49765
 10
680.063232
 20
295.622192
 10
679.640137
 20
295.672394
 10
679.239868
 20
295.651276
 10
678.871277
 20
295.562897
 10
678.54248
 20
295.412537
 10
678.254211
 20
295.199188
  0
LWPOLYLINE
  5
2CC
330
280
100
AcDbEntity
  8
0
  6
Continuous
 62
     0
370
    30
100
AcDbPolyline
 90
        7
 70
     0
 43
0.0
 10
685.037537
 20
287.851654
 10
685.104431
 20
287.95224
 10
685.136292
 20
288.102356
 10
685.134399
 20
288.302216
 10
685.100159
 20
288.551605
 10
685.034912
 20
288.849548
 10
684.92395
 20
289.246429
  0
ELLIPSE
  5
2CD
330
280
100
AcDbEntity
  8
0
  6
Continuous
 62
     0
370
     0
100
AcDbEllipse
 10
671.187339
 20
281.86849
 30
0.0
 11
4.845642083431707
 21
-5.247872041325945
 31
0.0
210
0.0
220
0.0
230
1.0
 40
0.387333
 41
0.3371131562860503
 42
0.6767136289830153
  0
ELLIPSE
  5
2CE
330
280
100
AcDbEntity
  8
0
  6
Continuous
 62
     0
370
     0
100
AcDbEllipse
 10
671.187339
 20
281.86849
 30
0.0
 11
4.845642083431707
 21
-5.247872041325945
 31
0.0
210
0.0
220
0.0
230
1.0
 40
0.387333
 41
0.6767136289830198
 42
2.804479388753686
  0
ELLIPSE
  5
2CF
330
280
100
AcDbEntity
  8
0
  6
Continuous
 62
     0
370
     0
100
AcDbEllipse
 10
667.287852
 20
278.267885
 30
0.0
 11
4.264165033419585
 21
-4.618127396366488
 31
0.0
210
0.0
220
0.0
230
1.0
 40
0.387333
 41
5.635465751349084
 42
6.959898936162598
  0
ELLIPSE
  5
2D0
330
280
100
AcDbEntity
  8
0
  6
Continuous
 62
     0
370
     0
100
AcDbEllipse
 10
667.287852
 20
278.267885
 30
0.0
 11
4.264165033419585
 21
-4.618127396366488
 31
0.0
210
0.0
220
0.0
230
1.0
 40
0.387333
 41
0.6767136289830216
 42
3.81830628257282
  0
ELLIPSE
  5
2D1
330
280
100
AcDbEntity
  8
0
  6
Continuous
 62
     0
370
     0
100
AcDbEllipse
 10
694.633734
 20
284.872887
 30
0.0
 11
4.782187518897425
 21
1.459685765464951
 31
0.0
210
0.0
220
0.0
230
-1.0
 40
0.718777
 41
1.151332336185127
 42
3.141592652537894
  0
ELLIPSE
  5
2D2
330
280
100
AcDbEntity
  8
0
  6
Continuous
 62
     0
370
     0
100
AcDbEllipse
 10
695.889265
 20
280.759546
 30
0.0
 11
6.831696455567695
 21
2.085265379235627
 31
0.0
210
0.0
220
0.0
230
-1.0
 40
0.718777
 41
5.991231238051039
 42
7.263067235584241
  0
ELLIPSE
  5
2D3
330
280
100
AcDbEntity
  8
0
  6
Continuous
 62
     0
370
     0
100
AcDbEllipse
 10
695.889265
 20
280.759546
 30
0.0
 11
6.831696455567695
 21
2.085265379235627
 31
0.0
210
0.0
220
0.0
230
-1.0
 40
0.718777
 41
0.9798819284046689
 42
3.885259155690184
  0
ELLIPSE
  5
2D4
330
280
100
AcDbEntity
  8
0
  6
Continuous
 62
     0
370
     0
100
AcDbEllipse
 10
698.67925
 20
294.519355
 30
0.0
 11
6.500001631229797
 21
11.25833307457059
 31
0.0
210
0.0
220
0.0
230
1.0
 40
0.57735
 41
1.058531359151064
 42
3.141592630739632
  0
ELLIPSE
  5
2D5
330
280
100
AcDbEntity
  8
0
  6
Continuous
 62
     0
370
     0
100
AcDbEllipse
 10
698.67925
 20
294.519355
 30
0.0
 11
6.500001631229797
 21
11.25833307457059
 31
0.0
210
0.0
220
0.0
230
1.0
 40
0.57735
 41
6.283171881252635
 42
7.341716666330633
  0
ELLIPSE
  5
2D6
330
280
100
AcDbEntity
  8
0
  6
Continuous
 62
     0
370
     0
100
AcDbEllipse
 10
702.214784
 20
292.478113
 30
0.0
 11
4.000001631229792
 21
6.928206055648387
 31
0.0
210
0.0
220
0.0
230
1.0
 40
0.57735
 41
4.20012401274084
 42
7.341716666330633
  0
ELLIPSE
  5
2D7
330
280
100
AcDbEntity
  8
0
  6
Continuous
 62
     0
370
     0
100
AcDbEllipse
 10
702.214784
 20
292.478113
 30
0.0
 11
4.000001631229792
 21
6.928206055648387
 31
0.0
210
0.0
220
0.0
230
1.0
 40
0.57735
 41
1.058531359151054
 42
4.20012401274084
  0
ELLIPSE
  5
2D8
330
280
100
AcDbEntity
  8
0
  6
Continuous
 62
     0
370
    30
100
AcDbEllipse
 10
702.214784
 20
292.478113
 30
0.0
 11
3.550001631229805
 21
6.148783192242413
 31
0.0
210
0.0
220
0.0
230
1.0
 40
0.57735
 41
1.058531359151056
 42
4.200124012740838
  0
ELLIPSE
  5
2D9
330
280
100
AcDbEntity
  8
0
  6
Continuous
 62
     0
370
    30
100
AcDbEllipse
 10
702.214784
 20
292.478113
 30
0.0
 11
3.500000000000001
 21
6.062177826491071
 31
0.0
210
0.0
220
0.0
230
1.0
 40
0.57735
 41
4.195307606067368
 42
4.218124427553269
  0
ELLIPSE
  5
2DA
330
280
100
AcDbEntity
  8
0
  6
Continuous
 62
     0
370
    30
100
AcDbEllipse
 10
702.214784
 20
292.478113
 30
0.0
 11
3.500000000000001
 21
6.062177826491071
 31
0.0
210
0.0
220
0.0
230
1.0
 40
0.57735
 41
4.218124427553295
 42
7.336900259657172
  0
LINE
  5
2DB
330
280
100
AcDbEntity
  8
0
  6
Continuous
 62
     0
370
    30
100
AcDbLine
 10
705.17925
 20
305.777685
 30
0.0
 11
693.511989
 21
312.513782
 31
0.0
  0
LINE
  5
2DC
330
280
100
AcDbEntity
  8
0
  6
Continuous
 62
     0
370
    30
100
AcDbLine
 10
692.17925
 20
283.261025
 30
0.0
 11
684.726118
 21
287.564093
 31
0.0
  0
LWPOLYLINE
  5
2DD
330
280
100
AcDbEntity
  8
0
  6
Continuous
 62
     0
370
    30
100
AcDbPolyline
 90
       45
 70
     0
 43
0.0
 10
692.17926
 20
283.261017
 10
692.876526
 20
282.906006
 10
693.608887
 20
282.623047
 10
694.36676
 20
282.413422
 10
695.14093
 20
282.278351
 10
695.921875
 20
282.218933
 10
696.703064
 20
282.233734
 10
697.480286
 20
282.318756
 10
698.249817
 20
282.469757
 10
699.007629
 20
282.682556
 10
699.750305
 20
282.953217
 10
700.476074
 20
283.278778
 10
701.184021
 20
283.656586
 10
701.872925
 20
284.084045
 10
702.541748
 20
284.558533
 10
703.189453
 20
285.077362
 10
703.814941
 20
285.637939
 10
704.416992
 20
286.237579
 10
704.993835
 20
286.873169
 10
705.543457
 20
287.541473
 10
706.063782
 20
288.239258
 10
706.552734
 20
288.963287
 10
707.008423
 20
289.710358
 10
707.428711
 20
290.477234
 10
707.811584
 20
291.260681
 10
708.155396
 20
292.057739
 10
708.458496
 20
292.86554
 10
708.719421
 20
293.681213
 10
708.936584
 20
294.501892
 10
709.108398
 20
295.324738
 10
709.233276
 20
296.146881
 10
709.309814
 20
296.965485
 10
709.336243
 20
297.777679
 10
709.310913
 20
298.58075
 10
709.231506
 20
299.372284
 10
709.095947
 20
300.14975
 10
708.901978
 20
300.910675
 10
708.647644
 20
301.65213
 10
708.332031
 20
302.368622
 10
707.954651
 20
303.053711
 10
707.514893
 20
303.700958
 10
707.012756
 20
304.303802
 10
706.452454
 20
304.855316
 10
705.840454
 20
305.348267
 10
705.17926
 20
305.777679
  0
LWPOLYLINE
  5
2DE
330
280
100
AcDbEntity
  8
0
  6
Continuous
 62
     0
370
    30
100
AcDbPolyline
 90
       33
 70
     0
 43
0.0
 10
689.838074
 20
282.557648
 10
689.459534
 20
281.99173
 10
689.135864
 20
281.395599
 10
688.872009
 20
280.773407
 10
688.672913
 20
280.129578
 10
688.541382
 20
279.470215
 10
688.479614
 20
278.802094
 10
688.489746
 20
278.131989
 10
688.573608
 20
277.466766
 10
688.730225
 20
276.814301
 10
688.957031
 20
276.182831
 10
689.251587
 20
275.580719
 10
689.61084
 20
275.015564
 10
690.029358
 20
274.491913
 10
690.50116
 20
274.013611
 10
691.020203
 20
273.584412
 10
691.580505
 20
273.20813
 10
692.176147
 20
272.887848
 10
692.801636
 20
272.624084
 10
693.451721
 20
272.416687
 10
694.121155
 20
272.265442
 10
694.805054
 20
272.169739
 10
695.498718
 20
272.128967
 10
696.197327
 20
272.142517
 10
696.896118
 20
272.209778
 10
697.59021
 20
272.330017
 10
698.274963
 20
272.502014
 10
698.945496
 20
272.724091
 10
699.597046
 20
272.994751
 10
700.224854
 20
273.312378
 10
700.824097
 20
273.675323
 10
701.390076
 20
274.081482
 10
701.933472
 20
274.542419
  0
ARC
  5
2DF
330
280
100
AcDbEntity
  8
0
  6
Continuous
 62
     0
370
    30
100
AcDbCircle
 10
697.861466
 20
279.531324
 30
0.0
 40
6.439755129374689
100
AcDbArc
 50
309.221636
 51
47.781895
  0
LINE
  5
2E0
330
280
100
AcDbEntity
  8
0
  6
Continuous
 62
     0
370
    30
100
AcDbLine
 10
689.851546
 20
283.413201
 30
0.0
 11
689.912046
 21
282.503212
 31
0.0
  0
LINE
  5
2E1
330
280
100
AcDbEntity
  8
0
  6
Continuous
 62
     0
370
    30
100
AcDbLine
 10
689.409975
 20
284.859866
 30
0.0
 11
689.851546
 21
283.413201
 31
0.0
  0
ARC
  5
2E2
330
280
100
AcDbEntity
  8
0
  6
Continuous
 62
     0
370
    30
100
AcDbCircle
 10
673.400674
 20
283.912181
 30
0.0
 40
10.99788985357399
100
AcDbArc
 50
195.602665
 51
249.833393
  0
ARC
  5
2E3
330
280
100
AcDbEntity
  8
0
  6
Continuous
 62
     0
370
    30
100
AcDbCircle
 10
667.342294
 20
282.613699
 30
0.0
 40
4.828401518946736
100
AcDbArc
 50
90.65874
 51
200.102963
  0
ARC
  5
2E4
330
280
100
AcDbEntity
  8
0
  6
Continuous
 62
     0
370
    30
100
AcDbCircle
 10
671.624219
 20
277.976338
 30
0.0
 40
4.828401195020367
100
AcDbArc
 50
245.332937
 51
354.77717
  0
ARC
  5
2E5
330
280
100
AcDbEntity
  8
0
  6
Continuous
 62
     0
370
    30
100
AcDbCircle
 10
667.026
 20
294.65452
 30
0.0
 40
7.21745129672813
100
AcDbArc
 50
272.070674
 51
313.40429
  0
ARC
  5
2E6
330
280
100
AcDbEntity
  8
0
  6
Continuous
 62
     0
370
    30
100
AcDbCircle
 10
683.601687
 20
276.702908
 30
0.0
 40
7.217450536935146
100
AcDbArc
 50
132.03161
 51
173.365229
  0
LINE
  5
2E7
330
280
100
AcDbEntity
  8
0
  6
Continuous
 62
     0
370
    30
100
AcDbLine
 10
678.25574
 20
295.200604
 30
0.0
 11
671.985413
 21
289.410874
 31
0.0
  0
LINE
  5
2E8
330
280
100
AcDbEntity
  8
0
  6
Continuous
 62
     0
370
    30
100
AcDbLine
 10
685.039603
 20
287.85355
 30
0.0
 11
678.769312
 21
282.063853
 31
0.0
  0
LWPOLYLINE
  5
2E9
330
280
100
AcDbEntity
  8
0
  6
Continuous
 62
     0
370
    30
100
AcDbPolyline
 90
       56
 70
     0
 43
0.0
 10
689.687439
 20
315.291687
 10
690.168457
 20
315.800415
 10
690.601379
 20
316.347687
 10
690.980652
 20
316.929932
 10
691.301025
 20
317.54361
 10
691.557983
 20
318.183716
 10
691.747986
 20
318.844269
 10
691.867371
 20
319.519135
 10
691.912598
 20
320.20224
 10
691.881653
 20
320.886597
 10
691.775208
 20
321.563629
 10
691.594055
 20
322.224701
 10
691.339294
 20
322.861084
 10
691.014221
 20
323.464722
 10
690.624268
 20
324.027924
 10
690.174988
 20
324.544128
 10
689.672546
 20
325.010254
 10
689.12323
 20
325.423889
 10
688.533264
 20
325.782623
 10
687.908936
 20
326.084076
 10
687.256409
 20
326.326019
 10
686.581238
 20
326.50827
 10
685.888489
 20
326.631653
 10
685.183411
 20
326.697144
 10
684.471069
 20
326.705627
 10
683.756592
 20
326.658051
 10
683.045166
 20
326.555298
 10
682.341919
 20
326.398315
 10
681.651978
 20
326.188049
 10
680.980347
 20
325.926178
 10
680.33197
 20
325.614807
 10
679.711731
 20
325.256012
 10
679.124695
 20
324.851898
 10
678.575745
 20
324.404602
 10
678.069641
 20
323.916199
 10
677.610901
 20
323.388794
 10
677.204163
 20
322.824463
 10
676.853882
 20
322.225922
 10
676.564087
 20
321.59848
 10
676.33844
 20
320.948029
 10
676.180847
 20
320.280518
 10
676.095154
 20
319.601898
 10
676.084961
 20
318.918152
 10
676.151794
 20
318.236542
 10
676.294189
 20
317.565948
 10
676.51062
 20
316.915314
 10
676.799255
 20
316.293457
 10
677.155762
 20
315.707916
 10
677.574585
 20
315.165527
 10
678.049927
 20
314.671936
 10
678.575562
 20
314.22998
 10
679.145264
 20
313.842102
 10
679.752625
 20
313.510712
 10
680.391541
 20
313.238129
 10
681.055725
 20
313.025055
 10
681.749878
 20
312.868866
  0
LINE
  5
2EA
330
280
100
AcDbEntity
  8
0
  6
Continuous
 62
     0
370
    30
100
AcDbLine
 10
690.536394
 20
315.423466
 30
0.0
 11
690.44536
 21
316.138601
 31
0.0
  0
LINE
  5
2EB
330
280
100
AcDbEntity
  8
0
  6
Continuous
 62
     0
370
    30
100
AcDbLine
 10
680.972019
 20
312.504094
 30
0.0
 11
680.648464
 21
313.147795
 31
0.0
  0
LINE
  5
2EC
330
280
100
AcDbEntity
  8
0
  6
Continuous
 62
     0
370
    30
100
AcDbLine
 10
692.475893
 20
309.069326
 30
0.0
 11
690.536394
 21
315.423466
 31
0.0
  0
LINE
  5
2ED
330
280
100
AcDbEntity
  8
0
  6
Continuous
 62
     0
370
    30
100
AcDbLine
 10
682.911427
 20
306.150253
 30
0.0
 11
680.972019
 21
312.504094
 31
0.0
  0
ARC
  5
2EE
330
280
100
AcDbEntity
  8
0
  6
Continuous
 62
     0
370
    30
100
AcDbCircle
 10
706.985519
 20
314.922873
 30
0.0
 40
11.00000684867752
100
AcDbArc
 50
16.973984
 51
69.827593
  0
ARC
  5
2EF
330
280
100
AcDbEntity
  8
0
  6
Continuous
 62
     0
370
    30
100
AcDbCircle
 10
713.045647
 20
316.222968
 30
0.0
 40
4.828401518946537
100
AcDbArc
 50
270.65874
 51
20.102963
  0
ARC
  5
2F0
330
280
100
AcDbEntity
  8
0
  6
Continuous
 62
     0
370
    30
100
AcDbCircle
 10
708.763722
 20
320.860329
 30
0.0
 40
4.828401195020368
100
AcDbArc
 50
65.332937
 51
174.77717
  0
ARC
  5
2F1
330
280
100
AcDbEntity
  8
0
  6
Continuous
 62
     0
370
    30
100
AcDbCircle
 10
713.361941
 20
304.182147
 30
0.0
 40
7.217451296727171
100
AcDbArc
 50
92.070674
 51
133.40429
  0
ARC
  5
2F2
330
280
100
AcDbEntity
  8
0
  6
Continuous
 62
     0
370
    30
100
AcDbCircle
 10
696.786253
 20
322.13376
 30
0.0
 40
7.217450536935603
100
AcDbArc
 50
312.03161
 51
353.365229
  0
LINE
  5
2F3
330
280
100
AcDbEntity
  8
0
  6
Continuous
 62
     0
370
    30
100
AcDbLine
 10
704.731538
 20
306.036171
 30
0.0
 11
708.402528
 21
309.425793
 31
0.0
  0
LINE
  5
2F4
330
280
100
AcDbEntity
  8
0
  6
Continuous
 62
     0
370
    30
100
AcDbLine
 10
695.661822
 20
311.272575
 30
0.0
 11
701.618629
 21
316.772814
 31
0.0
  0
LINE
  5
2F5
330
280
100
AcDbEntity
  8
0
  6
Continuous
 62
     0
370
    30
100
AcDbLine
 10
676.359685
 20
300.18556
 30
0.0
 11
674.342238
 21
301.339757
 31
0.0
  0
LINE
  5
2F6
330
280
100
AcDbEntity
  8
0
  6
Continuous
 62
     0
370
    30
100
AcDbLine
 10
681.169833
 20
311.856021
 30
0.0
 11
680.604103
 21
312.185625
 31
0.0
  0
LWPOLYLINE
  5
2F7
330
280
100
AcDbEntity
  8
0
  6
Continuous
 62
     0
370
    30
100
AcDbPolyline
 90
        5
 70
     0
 43
0.0
 10
691.148926
 20
313.416748
 10
691.716064
 20
313.274323
 10
692.27179
 20
313.092499
 10
692.812439
 20
312.871918
 10
693.511963
 20
312.513794
  0
LWPOLYLINE
  5
2F8
330
280
100
AcDbEntity
  8
0
  6
Continuous
 62
     0
370
    30
100
AcDbPolyline
 90
       21
 70
     0
 43
0.0
 10
677.002991
 20
294.043884
 10
676.711731
 20
294.830322
 10
676.488892
 20
295.639008
 10
676.332336
 20
296.46582
 10
676.239563
 20
297.307556
 10
676.208069
 20
298.16095
 10
676.235291
 20
299.022705
 10
676.318787
 20
299.889618
 10
676.456421
 20
300.758667
 10
676.646362
 20
301.627014
 10
676.887024
 20
302.491913
 10
677.176697
 20
303.350555
 10
677.51355
 20
304.199768
 10
677.895325
 20
305.035461
 10
678.319946
 20
305.853394
 10
678.785095
 20
306.649353
 10
679.288574
 20
307.419617
 10
679.828369
 20
308.160767
 10
680.402222
 20
308.869415
 10
681.007935
 20
309.542175
 10
681.674011
 20
310.204346
  0
ELLIPSE
  5
2F9
330
280
100
AcDbEntity
  8
0
  6
Continuous
 62
     0
370
     0
100
AcDbEllipse
 10
531.448497
 20
211.440828
 30
0.0
 11
-6.499999999974054
 21
-11.25833024915276
 31
0.0
210
0.0
220
0.0
230
-1.0
 40
0.57735
 41
0.6785303102211919
 42
1.832034531038087
  0
ELLIPSE
  5
2FA
330
280
100
AcDbEntity
  8
0
  6
Continuous
 62
     0
370
     0
100
AcDbEllipse
 10
531.448497
 20
211.440828
 30
0.0
 11
-6.499999999974054
 21
-11.25833024915276
 31
0.0
210
0.0
220
0.0
230
-1.0
 40
0.57735
 41
2.834008385929915
 42
3.141592676439949
  0
ELLIPSE
  5
2FB
330
280
100
AcDbEntity
  8
0
  6
Continuous
 62
     0
370
     0
100
AcDbEllipse
 10
524.490779
 20
215.457868
 30
0.0
 11
-3.125051764878465
 21
-5.412748433052289
 31
0.0
210
0.0
220
0.0
230
-1.0
 40
0.57735
 41
0.4942645528313928
 42
2.678732091861697
  0
ELLIPSE
  5
2FC
330
280
100
AcDbEntity
  8
0
  6
Continuous
 62
     0
370
     0
100
AcDbEllipse
 10
524.490779
 20
215.457868
 30
0.0
 11
-3.125051764878465
 21
-5.412748433052289
 31
0.0
210
0.0
220
0.0
230
-1.0
 40
0.57735
 41
0.1963385387917984
 42
0.4942645528313928
  0
ELLIPSE
  5
2FD
330
280
100
AcDbEntity
  8
0
  6
Continuous
 62
     0
370
    30
100
AcDbEllipse
 10
521.902555
 20
216.95218
 30
0.0
 11
-3.130940496485168
 21
-5.422948015387234
 31
0.0
210
0.0
220
0.0
230
-1.0
 40
0.57735
 41
0.4942645528313908
 42
3.378022089959249
  0
ELLIPSE
  5
2FE
330
280
100
AcDbEntity
  8
0
  6
Continuous
 62
     0
370
    30
100
AcDbEllipse
 10
521.902555
 20
216.95218
 30
0.0
 11
-3.130940496485168
 21
-5.422948015387234
 31
0.0
210
0.0
220
0.0
230
-1.0
 40
0.57735
 41
5.854579442978576
 42
6.777449860010977
  0
ELLIPSE
  5
2FF
330
280
100
AcDbEntity
  8
0
  6
Continuous
 62
     0
370
     0
100
AcDbEllipse
 10
549.447086
 20
223.284679
 30
0.0
 11
-3.391949458402222
 21
3.673510428928191
 31
0.0
210
0.0
220
0.0
230
-1.0
 40
0.387333
 41
-0.0000000256045141
 42
2.464879024606773
  0
ELLIPSE
  5
300
330
280
100
AcDbEntity
  8
0
  6
Continuous
 62
     0
370
     0
100
AcDbEllipse
 10
549.447086
 20
223.284679
 30
0.0
 11
-3.391949458402222
 21
3.673510428928191
 31
0.0
210
0.0
220
0.0
230
-1.0
 40
0.387333
 41
2.464879024606836
 42
3.141592627985339
  0
ELLIPSE
  5
301
330
280
100
AcDbEntity
  8
0
  6
Continuous
 62
     0
370
     0
100
AcDbEllipse
 10
553.63711
 20
227.153553
 30
0.0
 11
-4.845642083431707
 21
5.247872041325944
 31
0.0
210
0.0
220
0.0
230
-1.0
 40
0.387333
 41
5.946070761502993
 42
8.74806433178636
  0
ELLIPSE
  5
302
330
280
100
AcDbEntity
  8
0
  6
Continuous
 62
     0
370
     0
100
AcDbEllipse
 10
553.63711
 20
227.153553
 30
0.0
 11
-4.845642083431707
 21
5.247872041325944
 31
0.0
210
0.0
220
0.0
230
-1.0
 40
0.387333
 41
2.464879024606784
 42
3.478707151591612
  0
ELLIPSE
  5
303
330
280
100
AcDbEntity
  8
0
  6
Continuous
 62
     0
370
     0
100
AcDbEllipse
 10
557.536596
 20
230.754159
 30
0.0
 11
-4.264165033419585
 21
4.618127396366487
 31
0.0
210
0.0
220
0.0
230
-1.0
 40
0.387333
 41
0.6477057659818726
 42
2.464879024606773
  0
ELLIPSE
  5
304
330
280
100
AcDbEntity
  8
0
  6
Continuous
 62
     0
370
     0
100
AcDbEllipse
 10
557.536596
 20
230.754159
 30
0.0
 11
-4.264165033419585
 21
4.618127396366487
 31
0.0
210
0.0
220
0.0
230
-1.0
 40
0.387333
 41
2.464879024606781
 42
2.4938901283334
  0
ELLIPSE
  5
305
330
280
100
AcDbEntity
  8
0
  6
Continuous
 62
     0
370
     0
100
AcDbEllipse
 10
530.190715
 20
224.149156
 30
0.0
 11
-4.782187518897425
 21
-1.459685765464951
 31
0.0
210
0.0
220
0.0
230
1.0
 40
0.718777
 41
6.120687387634546
 42
8.44489603236471
  0
ELLIPSE
  5
306
330
280
100
AcDbEntity
  8
0
  6
Continuous
 62
     0
370
     0
100
AcDbEllipse
 10
530.190715
 20
224.149156
 30
0.0
 11
-4.782187518897425
 21
-1.459685765464951
 31
0.0
210
0.0
220
0.0
230
1.0
 40
0.718777
 41
2.161710725185143
 42
3.304159314188311
  0
LINE
  5
307
330
280
100
AcDbEntity
  8
0
  6
Continuous
 62
     0
370
    30
100
AcDbLine
 10
535.527445
 20
216.20688
 30
0.0
 11
535.682493
 21
216.354064
 31
0.0
  0
LWPOLYLINE
  5
308
330
280
100
AcDbEntity
  8
0
  6
Continuous
 62
     0
370
    30
100
AcDbPolyline
 90
        9
 70
     0
 43
0.0
 10
535.682495
 20
216.354065
 10
536.036682
 20
216.72612
 10
536.34021
 20
217.101028
 10
536.588684
 20
217.474365
 10
536.779297
 20
217.843033
 10
536.909302
 20
218.204132
 10
536.976929
 20
218.55571
 10
536.981018
 20
218.89682
 10
536.911194
 20
219.258621
  0
LWPOLYLINE
  5
309
330
280
100
AcDbEntity
  8
0
  6
Continuous
 62
     0
370
    30
100
AcDbPolyline
 90
       19
 70
     0
 43
0.0
 10
527.346802
 20
216.339417
 10
527.526794
 20
215.869736
 10
527.770508
 20
215.435486
 10
528.074402
 20
215.046066
 10
528.434082
 20
214.710434
 10
528.843567
 20
214.435852
 10
529.296021
 20
214.227768
 10
529.78363
 20
214.088776
 10
530.298767
 20
214.01886
 10
530.834045
 20
214.015778
 10
531.382751
 20
214.075897
 10
531.938721
 20
214.194519
 10
532.496277
 20
214.36647
 10
533.049622
 20
214.586517
 10
533.592957
 20
214.849228
 10
534.119507
 20
215.148712
 10
534.622253
 20
215.478897
 10
535.093811
 20
215.833527
 10
535.527466
 20
216.206879
  0
ELLIPSE
  5
30A
330
280
100
AcDbEntity
  8
0
  6
Continuous
 62
     0
370
     0
100
AcDbEllipse
 10
528.935184
 20
228.262497
 30
0.0
 11
-6.831696455567695
 21
-2.085265379235627
 31
0.0
210
0.0
220
0.0
230
1.0
 40
0.718777
 41
0.9509149035841364
 42
2.161710725185104
  0
ELLIPSE
  5
30B
330
280
100
AcDbEntity
  8
0
  6
Continuous
 62
     0
370
     0
100
AcDbEllipse
 10
528.935184
 20
228.262497
 30
0.0
 11
-6.831696455567695
 21
-2.085265379235627
 31
0.0
210
0.0
220
0.0
230
1.0
 40
0.718777
 41
2.161710725185125
 42
2.190692742428402
  0
ELLIPSE
  5
30C
330
280
100
AcDbEntity
  8
0
  6
Continuous
 62
     0
370
     0
100
AcDbEllipse
 10
527.766711
 20
232.090619
 30
0.0
 11
-6.011892880899124
 21
-1.835033533727215
 31
0.0
210
0.0
220
0.0
230
1.0
 40
0.718777
 41
5.303303378774927
 42
8.444896032364692
  0
ELLIPSE
  5
30D
330
280
100
AcDbEntity
  8
0
  6
Continuous
 62
     0
370
     0
100
AcDbEllipse
 10
527.766711
 20
232.090619
 30
0.0
 11
-6.011892880899124
 21
-1.835033533727215
 31
0.0
210
0.0
220
0.0
230
1.0
 40
0.718777
 41
2.161710725185125
 42
5.303303378774927
  0
ELLIPSE
  5
30E
330
280
100
AcDbEntity
  8
0
  6
Continuous
 62
     0
370
     0
100
AcDbEllipse
 10
519.813871
 20
195.92274
 30
0.0
 11
3.391949458402222
 21
-3.673510428928191
 31
0.0
210
0.0
220
0.0
230
1.0
 40
0.387333
 41
0.0000000256044546
 42
0.6767136289830118
  0
ELLIPSE
  5
30F
330
280
100
AcDbEntity
  8
0
  6
Continuous
 62
     0
370
     0
100
AcDbEllipse
 10
519.813871
 20
195.92274
 30
0.0
 11
3.391949458402222
 21
-3.673510428928191
 31
0.0
210
0.0
220
0.0
230
1.0
 40
0.387333
 41
0.6767136289830198
 42
3.141592911058913
  0
LWPOLYLINE
  5
310
330
280
100
AcDbEntity
  8
0
  6
Continuous
 62
     0
370
    30
100
AcDbPolyline
 90
       21
 70
     0
 43
0.0
 10
529.360474
 20
199.431824
 10
529.217285
 20
199.869232
 10
529.041809
 20
200.34845
 10
528.836243
 20
200.85997
 10
528.602051
 20
201.393478
 10
528.34082
 20
201.938492
 10
528.053406
 20
202.484589
 10
527.740234
 20
203.02153
 10
527.401672
 20
203.539139
 10
527.038208
 20
204.027191
 10
526.650879
 20
204.475311
 10
526.242249
 20
204.873474
 10
525.816162
 20
205.212173
 10
525.378479
 20
205.483871
 10
524.936768
 20
205.683044
 10
524.499756
 20
205.807556
 10
524.076599
 20
205.857773
 10
523.676392
 20
205.836639
 10
523.3078
 20
205.748276
 10
522.979004
 20
205.597916
 10
522.690674
 20
205.384552
  0
LWPOLYLINE
  5
311
330
280
100
AcDbEntity
  8
0
  6
Continuous
 62
     0
370
    30
100
AcDbPolyline
 90
        7
 70
     0
 43
0.0
 10
529.47406
 20
198.037018
 10
529.540955
 20
198.137604
 10
529.572754
 20
198.287735
 10
529.570923
 20
198.487595
 10
529.536682
 20
198.736984
 10
529.471436
 20
199.034927
 10
529.360474
 20
199.431824
  0
ELLIPSE
  5
312
330
280
100
AcDbEntity
  8
0
  6
Continuous
 62
     0
370
     0
100
AcDbEllipse
 10
515.623847
 20
192.053867
 30
0.0
 11
4.845642083431707
 21
-5.247872041325945
 31
0.0
210
0.0
220
0.0
230
1.0
 40
0.387333
 41
0.3371131915167513
 42
0.6767136289830145
  0
ELLIPSE
  5
313
330
280
100
AcDbEntity
  8
0
  6
Continuous
 62
     0
370
     0
100
AcDbEllipse
 10
515.623847
 20
192.053867
 30
0.0
 11
4.845642083431707
 21
-5.247872041325945
 31
0.0
210
0.0
220
0.0
230
1.0
 40
0.387333
 41
0.6767136289830198
 42
2.804479402031752
  0
ELLIPSE
  5
314
330
280
100
AcDbEntity
  8
0
  6
Continuous
 62
     0
370
     0
100
AcDbEllipse
 10
511.72436
 20
188.453261
 30
0.0
 11
4.264165033419585
 21
-4.618127396366488
 31
0.0
210
0.0
220
0.0
230
1.0
 40
0.387333
 41
5.635465741756685
 42
6.9598989361626
  0
ELLIPSE
  5
315
330
280
100
AcDbEntity
  8
0
  6
Continuous
 62
     0
370
     0
100
AcDbEllipse
 10
511.72436
 20
188.453261
 30
0.0
 11
4.264165033419585
 21
-4.618127396366488
 31
0.0
210
0.0
220
0.0
230
1.0
 40
0.387333
 41
0.6767136289830198
 42
3.81830628257282
  0
ELLIPSE
  5
316
330
280
100
AcDbEntity
  8
0
  6
Continuous
 62
     0
370
     0
100
AcDbEllipse
 10
539.070242
 20
195.058263
 30
0.0
 11
4.782187518897425
 21
1.459685765464951
 31
0.0
210
0.0
220
0.0
230
-1.0
 40
0.718777
 41
1.151332336185125
 42
3.141592652537887
  0
ELLIPSE
  5
317
330
280
100
AcDbEntity
  8
0
  6
Continuous
 62
     0
370
     0
100
AcDbEllipse
 10
540.325773
 20
190.944922
 30
0.0
 11
6.831696455567695
 21
2.085265379235627
 31
0.0
210
0.0
220
0.0
230
-1.0
 40
0.718777
 41
5.991231238051035
 42
7.26306723558424
  0
ELLIPSE
  5
318
330
280
100
AcDbEntity
  8
0
  6
Continuous
 62
     0
370
     0
100
AcDbEllipse
 10
540.325773
 20
190.944922
 30
0.0
 11
6.831696455567695
 21
2.085265379235627
 31
0.0
210
0.0
220
0.0
230
-1.0
 40
0.718777
 41
0.9798819284046693
 42
3.885259155683295
  0
ELLIPSE
  5
319
330
280
100
AcDbEntity
  8
0
  6
Continuous
 62
     0
370
     0
100
AcDbEllipse
 10
543.115758
 20
204.704731
 30
0.0
 11
6.500001631229797
 21
11.25833307457059
 31
0.0
210
0.0
220
0.0
230
1.0
 40
0.57735
 41
1.058531359151056
 42
3.141592630739625
  0
ELLIPSE
  5
31A
330
280
100
AcDbEntity
  8
0
  6
Continuous
 62
     0
370
     0
100
AcDbEllipse
 10
543.115758
 20
204.704731
 30
0.0
 11
6.500001631229797
 21
11.25833307457059
 31
0.0
210
0.0
220
0.0
230
1.0
 40
0.57735
 41
6.283178126129434
 42
7.341716666330633
  0
ELLIPSE
  5
31B
330
280
100
AcDbEntity
  8
0
  6
Continuous
 62
     0
370
     0
100
AcDbEllipse
 10
546.651292
 20
202.66349
 30
0.0
 11
4.000001631229792
 21
6.928206055648387
 31
0.0
210
0.0
220
0.0
230
1.0
 40
0.57735
 41
4.200124012740837
 42
7.341716666330628
  0
ELLIPSE
  5
31C
330
280
100
AcDbEntity
  8
0
  6
Continuous
 62
     0
370
     0
100
AcDbEllipse
 10
546.651292
 20
202.66349
 30
0.0
 11
4.000001631229792
 21
6.928206055648387
 31
0.0
210
0.0
220
0.0
230
1.0
 40
0.57735
 41
1.058531359151047
 42
4.200124012740836
  0
ELLIPSE
  5
31D
330
280
100
AcDbEntity
  8
0
  6
Continuous
 62
     0
370
    30
100
AcDbEllipse
 10
546.651292
 20
202.66349
 30
0.0
 11
3.550001631229805
 21
6.148783192242413
 31
0.0
210
0.0
220
0.0
230
1.0
 40
0.57735
 41
1.058531359151054
 42
4.200124012740835
  0
ELLIPSE
  5
31E
330
280
100
AcDbEntity
  8
0
  6
Continuous
 62
     0
370
    30
100
AcDbEllipse
 10
546.651292
 20
202.66349
 30
0.0
 11
3.500000000000001
 21
6.062177826491071
 31
0.0
210
0.0
220
0.0
230
1.0
 40
0.57735
 41
4.19530760606736
 42
4.218124427553275
  0
ELLIPSE
  5
31F
330
280
100
AcDbEntity
  8
0
  6
Continuous
 62
     0
370
    30
100
AcDbEllipse
 10
546.651292
 20
202.66349
 30
0.0
 11
3.500000000000001
 21
6.062177826491071
 31
0.0
210
0.0
220
0.0
230
1.0
 40
0.57735
 41
4.218124427553294
 42
7.33690025965717
  0
LINE
  5
320
330
280
100
AcDbEntity
  8
0
  6
Continuous
 62
     0
370
    30
100
AcDbLine
 10
549.615759
 20
215.963061
 30
0.0
 11
537.948497
 21
222.699158
 31
0.0
  0
LINE
  5
321
330
280
100
AcDbEntity
  8
0
  6
Continuous
 62
     0
370
    30
100
AcDbLine
 10
536.615758
 20
193.446401
 30
0.0
 11
529.162626
 21
197.749469
 31
0.0
  0
LWPOLYLINE
  5
322
330
280
100
AcDbEntity
  8
0
  6
Continuous
 62
     0
370
    30
100
AcDbPolyline
 90
       45
 70
     0
 43
0.0
 10
536.615784
 20
193.446396
 10
537.313049
 20
193.09137
 10
538.045349
 20
192.808426
 10
538.803284
 20
192.598816
 10
539.577393
 20
192.46373
 10
540.358398
 20
192.404297
 10
541.139526
 20
192.419128
 10
541.916809
 20
192.50412
 10
542.68634
 20
192.655121
 10
543.444153
 20
192.867935
 10
544.186768
 20
193.138596
 10
544.912598
 20
193.464157
 10
545.620483
 20
193.84198
 10
546.309387
 20
194.26944
 10
546.978271
 20
194.743896
 10
547.625977
 20
195.262741
 10
548.251465
 20
195.823334
 10
548.853516
 20
196.422958
 10
549.430359
 20
197.058533
 10
549.97998
 20
197.726837
 10
550.500305
 20
198.424622
 10
550.989258
 20
199.148666
 10
551.444946
 20
199.895737
 10
551.865173
 20
200.662613
 10
552.248108
 20
201.44606
 10
552.591858
 20
202.243118
 10
552.89502
 20
203.050903
 10
553.155945
 20
203.866577
 10
553.373047
 20
204.687271
 10
553.544861
 20
205.510117
 10
553.6698
 20
206.33226
 10
553.746277
 20
207.150864
 10
553.772766
 20
207.963043
 10
553.747375
 20
208.766144
 10
553.66803
 20
209.557663
 10
553.53241
 20
210.335114
 10
553.338501
 20
211.096039
 10
553.084167
 20
211.837509
 10
552.768555
 20
212.554001
 10
552.391174
 20
213.23909
 10
551.951416
 20
213.886322
 10
551.449219
 20
214.489182
 10
550.888916
 20
215.040695
 10
550.276917
 20
215.533661
 10
549.615784
 20
215.963058
  0
LWPOLYLINE
  5
323
330
280
100
AcDbEntity
  8
0
  6
Continuous
 62
     0
370
    30
100
AcDbPolyline
 90
       33
 70
     0
 43
0.0
 10
534.274536
 20
192.743027
 10
533.896057
 20
192.177109
 10
533.572327
 20
191.580963
 10
533.308533
 20
190.958786
 10
533.109375
 20
190.314957
 10
532.977844
 20
189.655594
 10
532.916077
 20
188.987457
 10
532.92627
 20
188.317352
 10
533.010132
 20
187.652145
 10
533.166687
 20
186.999664
 10
533.393555
 20
186.36821
 10
533.68811
 20
185.766098
 10
534.047363
 20
185.200928
 10
534.465881
 20
184.677292
 10
534.937683
 20
184.198975
 10
535.456726
 20
183.769791
 10
536.017029
 20
183.393494
 10
536.612671
 20
183.073227
 10
537.238159
 20
182.809464
 10
537.888245
 20
182.602066
 10
538.557678
 20
182.450806
 10
539.241577
 20
182.355103
 10
539.935242
 20
182.314346
 10
540.63385
 20
182.327896
 10
541.332581
 20
182.395157
 10
542.026733
 20
182.515411
 10
542.711426
 20
182.687378
 10
543.381958
 20
182.909485
 10
544.033508
 20
183.18013
 10
544.661316
 20
183.497742
 10
545.26062
 20
183.860703
 10
545.826599
 20
184.266861
 10
546.369995
 20
184.727783
  0
ARC
  5
324
330
280
100
AcDbEntity
  8
0
  6
Continuous
 62
     0
370
    30
100
AcDbCircle
 10
542.297974
 20
189.7167
 30
0.0
 40
6.43975512937493
100
AcDbArc
 50
309.221636
 51
47.781895
  0
LINE
  5
325
330
280
100
AcDbEntity
  8
0
  6
Continuous
 62
     0
370
    30
100
AcDbLine
 10
534.288054
 20
193.598577
 30
0.0
 11
534.348554
 21
192.688588
 31
0.0
  0
LINE
  5
326
330
280
100
AcDbEntity
  8
0
  6
Continuous
 62
     0
370
    30
100
AcDbLine
 10
533.846483
 20
195.045242
 30
0.0
 11
534.288054
 21
193.598577
 31
0.0
  0
ARC
  5
327
330
280
100
AcDbEntity
  8
0
  6
Continuous
 62
     0
370
    30
100
AcDbCircle
 10
517.837182
 20
194.097557
 30
0.0
 40
10.99788985357424
100
AcDbArc
 50
195.602665
 51
249.833393
  0
ARC
  5
328
330
280
100
AcDbEntity
  8
0
  6
Continuous
 62
     0
370
    30
100
AcDbCircle
 10
511.778802
 20
192.799076
 30
0.0
 40
4.828401518946545
100
AcDbArc
 50
90.65874
 51
200.102963
  0
ARC
  5
329
330
280
100
AcDbEntity
  8
0
  6
Continuous
 62
     0
370
    30
100
AcDbCircle
 10
516.060727
 20
188.161714
 30
0.0
 40
4.828401195020476
100
AcDbArc
 50
245.332937
 51
354.77717
  0
ARC
  5
32A
330
280
100
AcDbEntity
  8
0
  6
Continuous
 62
     0
370
    30
100
AcDbCircle
 10
511.462508
 20
204.839896
 30
0.0
 40
7.217451296729067
100
AcDbArc
 50
272.070674
 51
313.40429
  0
ARC
  5
32B
330
280
100
AcDbEntity
  8
0
  6
Continuous
 62
     0
370
    30
100
AcDbCircle
 10
528.038195
 20
186.888284
 30
0.0
 40
7.217450536935763
100
AcDbArc
 50
132.03161
 51
173.365229
  0
LINE
  5
32C
330
280
100
AcDbEntity
  8
0
  6
Continuous
 62
     0
370
    30
100
AcDbLine
 10
522.692248
 20
205.38598
 30
0.0
 11
516.421921
 21
199.59625
 31
0.0
  0
LINE
  5
32D
330
280
100
AcDbEntity
  8
0
  6
Continuous
 62
     0
370
    30
100
AcDbLine
 10
529.476111
 20
198.038926
 30
0.0
 11
523.20582
 21
192.24923
 31
0.0
  0
LWPOLYLINE
  5
32E
330
280
100
AcDbEntity
  8
0
  6
Continuous
 62
     0
370
    30
100
AcDbPolyline
 90
       56
 70
     0
 43
0.0
 10
534.123962
 20
225.477051
 10
534.60498
 20
225.985779
 10
535.037842
 20
226.533051
 10
535.417175
 20
227.115326
 10
535.737488
 20
227.728973
 10
535.994507
 20
228.36911
 10
536.184509
 20
229.029648
 10
536.303894
 20
229.704514
 10
536.349121
 20
230.387619
 10
536.318176
 20
231.071976
 10
536.21167
 20
231.749023
 10
536.030579
 20
232.410065
 10
535.775757
 20
233.046478
 10
535.450745
 20
233.650101
 10
535.06073
 20
234.213303
 10
534.61145
 20
234.729523
 10
534.10907
 20
235.195633
 10
533.559753
 20
235.609268
 10
532.969788
 20
235.968002
 10
532.345459
 20
236.269455
 10
531.692932
 20
236.511414
 10
531.0177
 20
236.693634
 10
530.325012
 20
236.817032
 10
529.619934
 20
236.882523
 10
528.907593
 20
236.891022
 10
528.193115
 20
236.84343
 10
527.481689
 20
236.740677
 10
526.778442
 20
236.583694
 10
526.088501
 20
236.373428
 10
525.41687
 20
236.111557
 10
524.768433
 20
235.800171
 10
524.148254
 20
235.441376
 10
523.561218
 20
235.037277
 10
523.012268
 20
234.589981
 10
522.506104
 20
234.101593
 10
522.047363
 20
233.574173
 10
521.640686
 20
233.009842
 10
521.290405
 20
232.411301
 10
521.000549
 20
231.783844
 10
520.774963
 20
231.133392
 10
520.617371
 20
230.465897
 10
520.531616
 20
229.787277
 10
520.521484
 20
229.103516
 10
520.588257
 20
228.421906
 10
520.730652
 20
227.751312
 10
520.947144
 20
227.100693
 10
521.235779
 20
226.478836
 10
521.592285
 20
225.893295
 10
522.011108
 20
225.350891
 10
522.48645
 20
224.8573
 10
523.012085
 20
224.415359
 10
523.581726
 20
224.027496
 10
524.189148
 20
223.696091
 10
524.828064
 20
223.423508
 10
525.492249
 20
223.210419
 10
526.18634
 20
223.05423
  0
LINE
  5
32F
330
280
100
AcDbEntity
  8
0
  6
Continuous
 62
     0
370
    30
100
AcDbLine
 10
534.972903
 20
225.608842
 30
0.0
 11
534.881868
 21
226.323977
 31
0.0
  0
LINE
  5
330
330
280
100
AcDbEntity
  8
0
  6
Continuous
 62
     0
370
    30
100
AcDbLine
 10
525.408528
 20
222.68947
 30
0.0
 11
525.084972
 21
223.333171
 31
0.0
  0
LINE
  5
331
330
280
100
AcDbEntity
  8
0
  6
Continuous
 62
     0
370
    30
100
AcDbLine
 10
536.912401
 20
219.254703
 30
0.0
 11
534.972903
 21
225.608842
 31
0.0
  0
LINE
  5
332
330
280
100
AcDbEntity
  8
0
  6
Continuous
 62
     0
370
    30
100
AcDbLine
 10
527.347935
 20
216.335629
 30
0.0
 11
525.408528
 21
222.68947
 31
0.0
  0
ARC
  5
333
330
280
100
AcDbEntity
  8
0
  6
Continuous
 62
     0
370
    30
100
AcDbCircle
 10
551.422028
 20
225.108249
 30
0.0
 40
11.00000684867805
100
AcDbArc
 50
16.973984
 51
69.827593
  0
ARC
  5
334
330
280
100
AcDbEntity
  8
0
  6
Continuous
 62
     0
370
    30
100
AcDbCircle
 10
557.482155
 20
226.408344
 30
0.0
 40
4.828401518946587
100
AcDbArc
 50
270.65874
 51
20.102963
  0
ARC
  5
335
330
280
100
AcDbEntity
  8
0
  6
Continuous
 62
     0
370
    30
100
AcDbCircle
 10
553.20023
 20
231.045705
 30
0.0
 40
4.828401195020416
100
AcDbArc
 50
65.332937
 51
174.77717
  0
ARC
  5
336
330
280
100
AcDbEntity
  8
0
  6
Continuous
 62
     0
370
    30
100
AcDbCircle
 10
557.798449
 20
214.367523
 30
0.0
 40
7.217451296728539
100
AcDbArc
 50
92.070674
 51
133.40429
  0
ARC
  5
337
330
280
100
AcDbEntity
  8
0
  6
Continuous
 62
     0
370
    30
100
AcDbCircle
 10
541.222761
 20
232.319136
 30
0.0
 40
7.217450536936488
100
AcDbArc
 50
312.03161
 51
353.365229
  0
LINE
  5
338
330
280
100
AcDbEntity
  8
0
  6
Continuous
 62
     0
370
    30
100
AcDbLine
 10
549.168047
 20
216.221548
 30
0.0
 11
552.839036
 21
219.611169
 31
0.0
  0
LINE
  5
339
330
280
100
AcDbEntity
  8
0
  6
Continuous
 62
     0
370
    30
100
AcDbLine
 10
540.098331
 20
221.457951
 30
0.0
 11
546.055137
 21
226.95819
 31
0.0
  0
LINE
  5
33A
330
280
100
AcDbEntity
  8
0
  6
Continuous
 62
     0
370
    30
100
AcDbLine
 10
520.796193
 20
210.370936
 30
0.0
 11
518.778746
 21
211.525133
 31
0.0
  0
LINE
  5
33B
330
280
100
AcDbEntity
  8
0
  6
Continuous
 62
     0
370
    30
100
AcDbLine
 10
525.606341
 20
222.041397
 30
0.0
 11
525.040611
 21
222.371001
 31
0.0
  0
LWPOLYLINE
  5
33C
330
280
100
AcDbEntity
  8
0
  6
Continuous
 62
     0
370
    30
100
AcDbPolyline
 90
        5
 70
     0
 43
0.0
 10
535.585449
 20
223.602112
 10
536.152588
 20
223.459702
 10
536.708252
 20
223.277878
 10
537.248962
 20
223.057297
 10
537.948486
 20
222.699158
  0
LWPOLYLINE
  5
33D
330
280
100
AcDbEntity
  8
0
  6
Continuous
 62
     0
370
    30
100
AcDbPolyline
 90
       21
 70
     0
 43
0.0
 10
521.439514
 20
204.229263
 10
521.148254
 20
205.015701
 10
520.925354
 20
205.824387
 10
520.768799
 20
206.651199
 10
520.676086
 20
207.492935
 10
520.644592
 20
208.346313
 10
520.671814
 20
209.208084
 10
520.75531
 20
210.074997
 10
520.892883
 20
210.944031
 10
521.082886
 20
211.812378
 10
521.323547
 20
212.677277
 10
521.61322
 20
213.535919
 10
521.950012
 20
214.385147
 10
522.331848
 20
215.22084
 10
522.756409
 20
216.038773
 10
523.221558
 20
216.834747
 10
523.725098
 20
217.604996
 10
524.264893
 20
218.346146
 10
524.838684
 20
219.054794
 10
525.444458
 20
219.727554
 10
526.110474
 20
220.389709
  0
ELLIPSE
  5
33E
330
280
100
AcDbEntity
  8
0
  6
Continuous
 62
     0
370
    30
100
AcDbEllipse
 10
619.483291
 20
250.42854
 30
0.0
 11
-6.499999999974039
 21
-11.25833024915273
 31
0.0
210
0.0
220
0.0
230
-1.0
 40
0.57735
 41
0.4942645528313941
 42
3.14159267643995
  0
ELLIPSE
  5
33F
330
280
100
AcDbEntity
  8
0
  6
Continuous
 62
     0
370
    30
100
AcDbEllipse
 10
619.483291
 20
250.42854
 30
0.0
 11
-6.499999999974039
 21
-11.25833024915273
 31
0.0
210
0.0
220
0.0
230
-1.0
 40
0.57735
 41
0.0000000228501571
 42
0.4942645528313941
  0
ELLIPSE
  5
340
330
280
100
AcDbEntity
  8
0
  6
Continuous
 62
     0
370
     0
100
AcDbEllipse
 10
609.230242
 20
256.34814
 30
0.0
 11
-6.499999999974054
 21
-11.25833024915276
 31
0.0
210
0.0
220
0.0
230
-1.0
 40
0.57735
 41
0.6785303102211714
 42
3.141592676439949
  0
ELLIPSE
  5
341
330
280
100
AcDbEntity
  8
0
  6
Continuous
 62
     0
370
     0
100
AcDbEllipse
 10
602.272525
 20
260.36518
 30
0.0
 11
-3.125051764878465
 21
-5.412748433052289
 31
0.0
210
0.0
220
0.0
230
-1.0
 40
0.57735
 41
0.4942645528313935
 42
2.945042701899415
  0
ELLIPSE
  5
342
330
280
100
AcDbEntity
  8
0
  6
Continuous
 62
     0
370
     0
100
AcDbEllipse
 10
602.272525
 20
260.36518
 30
0.0
 11
-3.125051764878465
 21
-5.412748433052289
 31
0.0
210
0.0
220
0.0
230
-1.0
 40
0.57735
 41
0.1963385387918367
 42
0.4942645528313935
  0
ELLIPSE
  5
343
330
280
100
AcDbEntity
  8
0
  6
Continuous
 62
     0
370
    30
100
AcDbEllipse
 10
599.684301
 20
261.859492
 30
0.0
 11
-3.130940496485168
 21
-5.422948015387234
 31
0.0
210
0.0
220
0.0
230
-1.0
 40
0.57735
 41
0.4942645528313911
 42
3.143867879986866
  0
ELLIPSE
  5
344
330
280
100
AcDbEntity
  8
0
  6
Continuous
 62
     0
370
    30
100
AcDbEllipse
 10
599.684301
 20
261.859492
 30
0.0
 11
-3.130940496485168
 21
-5.422948015387234
 31
0.0
210
0.0
220
0.0
230
-1.0
 40
0.57735
 41
5.854579442978572
 42
6.777449860010977
  0
LINE
  5
345
330
280
100
AcDbEntity
  8
0
  6
Continuous
 62
     0
370
    30
100
AcDbLine
 10
598.577939
 20
255.278248
 30
0.0
 11
596.560492
 21
256.432445
 31
0.0
  0
LINE
  5
346
330
280
100
AcDbEntity
  8
0
  6
Continuous
 62
     0
370
    30
100
AcDbLine
 10
604.829948
 20
266.108657
 30
0.0
 11
602.822357
 21
267.278313
 31
0.0
  0
LWPOLYLINE
  5
347
330
280
100
AcDbEntity
  8
0
  6
Continuous
 62
     0
370
    30
100
AcDbPolyline
 90
       38
 70
     0
 43
0.0
 10
599.221252
 20
249.136581
 10
598.942078
 20
249.885712
 10
598.725098
 20
250.655258
 10
598.568604
 20
251.441574
 10
598.470398
 20
252.241852
 10
598.428345
 20
253.053253
 10
598.440125
 20
253.872986
 10
598.503662
 20
254.698212
 10
598.616943
 20
255.52623
 10
598.778381
 20
256.354553
 10
598.986572
 20
257.180817
 10
599.23999
 20
258.002594
 10
599.537109
 20
258.817383
 10
599.876282
 20
259.62207
 10
600.255554
 20
260.412933
 10
600.672974
 20
261.18631
 10
601.126648
 20
261.93866
 10
601.614746
 20
262.66687
 10
602.135315
 20
263.367981
 10
602.686523
 20
264.039062
 10
603.266602
 20
264.677216
 10
603.873535
 20
265.279449
 10
604.505554
 20
265.842865
 10
605.161133
 20
266.364502
 10
605.839111
 20
266.841492
 10
606.538452
 20
267.270874
 10
607.257996
 20
267.64975
 10
607.996704
 20
267.97522
 10
608.75354
 20
268.244354
 10
609.526917
 20
268.454132
 10
610.313293
 20
268.600922
 10
611.107971
 20
268.680756
 10
611.906372
 20
268.689697
 10
612.703857
 20
268.62384
 10
613.494141
 20
268.481171
 10
614.268188
 20
268.263
 10
615.016541
 20
267.970978
 10
615.730225
 20
267.606476
  0
LINE
  5
348
330
280
100
AcDbEntity
  8
0
  6
Continuous
 62
     0
370
    30
100
AcDbLine
 10
612.98329
 20
239.17021
 30
0.0
 11
606.944372
 21
242.656781
 31
0.0
  0
LINE
  5
349
330
280
100
AcDbEntity
  8
0
  6
Continuous
 62
     0
370
    30
100
AcDbLine
 10
625.983291
 20
261.68687
 30
0.0
 11
615.730242
 21
267.60647
 31
0.0
  0
ELLIPSE
  5
34A
330
280
100
AcDbEntity
  8
0
  6
Continuous
 62
     0
370
     0
100
AcDbEllipse
 10
627.228832
 20
268.191992
 30
0.0
 11
-3.391949458402222
 21
3.673510428928191
 31
0.0
210
0.0
220
0.0
230
-1.0
 40
0.387333
 41
-0.0000000256045256
 42
2.464879024606774
  0
ELLIPSE
  5
34B
330
280
100
AcDbEntity
  8
0
  6
Continuous
 62
     0
370
     0
100
AcDbEllipse
 10
627.228832
 20
268.191992
 30
0.0
 11
-3.391949458402222
 21
3.673510428928191
 31
0.0
210
0.0
220
0.0
230
-1.0
 40
0.387333
 41
2.464879024606837
 42
3.141592627985338
  0
ELLIPSE
  5
34C
330
280
100
AcDbEntity
  8
0
  6
Continuous
 62
     0
370
     0
100
AcDbEllipse
 10
631.418855
 20
272.060865
 30
0.0
 11
-4.845642083431707
 21
5.247872041325944
 31
0.0
210
0.0
220
0.0
230
-1.0
 40
0.387333
 41
5.946070761502995
 42
8.74806433178636
  0
ELLIPSE
  5
34D
330
280
100
AcDbEntity
  8
0
  6
Continuous
 62
     0
370
     0
100
AcDbEllipse
 10
631.418855
 20
272.060865
 30
0.0
 11
-4.845642083431707
 21
5.247872041325944
 31
0.0
210
0.0
220
0.0
230
-1.0
 40
0.387333
 41
2.464879024606782
 42
3.478707151591636
  0
ELLIPSE
  5
34E
330
280
100
AcDbEntity
  8
0
  6
Continuous
 62
     0
370
     0
100
AcDbEllipse
 10
635.318342
 20
275.661471
 30
0.0
 11
-4.264165033419585
 21
4.618127396366487
 31
0.0
210
0.0
220
0.0
230
-1.0
 40
0.387333
 41
0.6477031396741948
 42
2.464879024606773
  0
ELLIPSE
  5
34F
330
280
100
AcDbEntity
  8
0
  6
Continuous
 62
     0
370
     0
100
AcDbEllipse
 10
635.318342
 20
275.661471
 30
0.0
 11
-4.264165033419585
 21
4.618127396366487
 31
0.0
210
0.0
220
0.0
230
-1.0
 40
0.387333
 41
2.464879024606779
 42
2.493890899079104
  0
ARC
  5
350
330
280
100
AcDbEntity
  8
0
  6
Continuous
 62
     0
370
    30
100
AcDbCircle
 10
629.203773
 20
270.015561
 30
0.0
 40
11.00000684867812
100
AcDbArc
 50
16.973984
 51
69.827593
  0
ARC
  5
351
330
280
100
AcDbEntity
  8
0
  6
Continuous
 62
     0
370
    30
100
AcDbCircle
 10
635.2639
 20
271.315656
 30
0.0
 40
4.828401518946603
100
AcDbArc
 50
270.65874
 51
20.102963
  0
ARC
  5
352
330
280
100
AcDbEntity
  8
0
  6
Continuous
 62
     0
370
    30
100
AcDbCircle
 10
630.981976
 20
275.953017
 30
0.0
 40
4.828401195020453
100
AcDbArc
 50
65.332937
 51
174.77717
  0
ARC
  5
353
330
280
100
AcDbEntity
  8
0
  6
Continuous
 62
     0
370
    30
100
AcDbCircle
 10
635.580195
 20
259.274835
 30
0.0
 40
7.217451296728984
100
AcDbArc
 50
92.070674
 51
133.40429
  0
ARC
  5
354
330
280
100
AcDbEntity
  8
0
  6
Continuous
 62
     0
370
    30
100
AcDbCircle
 10
619.004507
 20
277.226448
 30
0.0
 40
7.217450536935489
100
AcDbArc
 50
312.03161
 51
353.365229
  0
LINE
  5
355
330
280
100
AcDbEntity
  8
0
  6
Continuous
 62
     0
370
    30
100
AcDbLine
 10
626.949795
 20
261.128862
 30
0.0
 11
630.620782
 21
264.518481
 31
0.0
  0
LINE
  5
356
330
280
100
AcDbEntity
  8
0
  6
Continuous
 62
     0
370
    30
100
AcDbLine
 10
617.880076
 20
266.365263
 30
0.0
 11
623.836883
 21
271.865502
 31
0.0
  0
ELLIPSE
  5
357
330
280
100
AcDbEntity
  8
0
  6
Continuous
 62
     0
370
    30
100
AcDbEllipse
 10
604.321447
 20
247.040373
 30
0.0
 11
3.391949458402272
 21
-3.673510428928244
 31
0.0
210
0.0
220
0.0
230
1.0
 40
0.387333
 41
0.6767136289830269
 42
3.141592679194247
  0
ELLIPSE
  5
358
330
280
100
AcDbEntity
  8
0
  6
Continuous
 62
     0
370
     0
100
AcDbEllipse
 10
597.595616
 20
240.830052
 30
0.0
 11
3.391949458402222
 21
-3.673510428928191
 31
0.0
210
0.0
220
0.0
230
1.0
 40
0.387333
 41
0.0000000256044563
 42
0.6767136289830189
  0
ELLIPSE
  5
359
330
280
100
AcDbEntity
  8
0
  6
Continuous
 62
     0
370
     0
100
AcDbEllipse
 10
597.595616
 20
240.830052
 30
0.0
 11
3.391949458402222
 21
-3.673510428928191
 31
0.0
210
0.0
220
0.0
230
1.0
 40
0.387333
 41
0.6767136289830828
 42
3.141592679194197
  0
ELLIPSE
  5
35A
330
280
100
AcDbEntity
  8
0
  6
Continuous
 62
     0
370
     0
100
AcDbEllipse
 10
593.405593
 20
236.961179
 30
0.0
 11
4.845642083431707
 21
-5.247872041325944
 31
0.0
210
0.0
220
0.0
230
1.0
 40
0.387333
 41
0.3371136461588629
 42
0.6767136289830189
  0
ELLIPSE
  5
35B
330
280
100
AcDbEntity
  8
0
  6
Continuous
 62
     0
370
     0
100
AcDbEllipse
 10
593.405593
 20
236.961179
 30
0.0
 11
4.845642083431707
 21
-5.247872041325944
 31
0.0
210
0.0
220
0.0
230
1.0
 40
0.387333
 41
0.6767136289830287
 42
2.804478796453999
  0
ELLIPSE
  5
35C
330
280
100
AcDbEntity
  8
0
  6
Continuous
 62
     0
370
     0
100
AcDbEllipse
 10
589.506106
 20
233.360573
 30
0.0
 11
4.264165033419585
 21
-4.618127396366487
 31
0.0
210
0.0
220
0.0
230
1.0
 40
0.387333
 41
5.635465750199291
 42
6.959898936162606
  0
ELLIPSE
  5
35D
330
280
100
AcDbEntity
  8
0
  6
Continuous
 62
     0
370
     0
100
AcDbEllipse
 10
589.506106
 20
233.360573
 30
0.0
 11
4.264165033419585
 21
-4.618127396366487
 31
0.0
210
0.0
220
0.0
230
1.0
 40
0.387333
 41
0.676713628983026
 42
3.818306282572819
  0
ARC
  5
35E
330
280
100
AcDbEntity
  8
0
  6
Continuous
 62
     0
370
    30
100
AcDbCircle
 10
595.618928
 20
239.004869
 30
0.0
 40
10.99788985357434
100
AcDbArc
 50
195.602665
 51
249.833393
  0
ARC
  5
35F
330
280
100
AcDbEntity
  8
0
  6
Continuous
 62
     0
370
    30
100
AcDbCircle
 10
589.560548
 20
237.706388
 30
0.0
 40
4.82840151894661
100
AcDbArc
 50
90.65874
 51
200.102963
  0
ARC
  5
360
330
280
100
AcDbEntity
  8
0
  6
Continuous
 62
     0
370
    30
100
AcDbCircle
 10
593.842472
 20
233.069026
 30
0.0
 40
4.828401195020527
100
AcDbArc
 50
245.332937
 51
354.77717
  0
ARC
  5
361
330
280
100
AcDbEntity
  8
0
  6
Continuous
 62
     0
370
    30
100
AcDbCircle
 10
589.244254
 20
249.747208
 30
0.0
 40
7.217451296728827
100
AcDbArc
 50
272.070674
 51
313.40429
  0
ARC
  5
362
330
280
100
AcDbEntity
  8
0
  6
Continuous
 62
     0
370
    30
100
AcDbCircle
 10
605.819941
 20
231.795596
 30
0.0
 40
7.217450536936203
100
AcDbArc
 50
132.03161
 51
173.365229
  0
LINE
  5
363
330
280
100
AcDbEntity
  8
0
  6
Continuous
 62
     0
370
    30
100
AcDbLine
 10
600.929498
 20
250.713883
 30
0.0
 11
594.203667
 21
244.503562
 31
0.0
  0
LINE
  5
364
330
280
100
AcDbEntity
  8
0
  6
Continuous
 62
     0
370
    30
100
AcDbLine
 10
607.713397
 20
243.366863
 30
0.0
 11
600.987566
 21
237.156542
 31
0.0
  0
ELLIPSE
  5
365
330
280
100
AcDbEntity
  8
0
  6
Continuous
 62
     0
370
     0
100
AcDbEllipse
 10
620.897504
 20
249.612043
 30
0.0
 11
6.500001631229797
 21
11.25833307457059
 31
0.0
210
0.0
220
0.0
230
1.0
 40
0.57735
 41
6.283178125611816
 42
7.341716666330633
  0
ELLIPSE
  5
366
330
280
100
AcDbEntity
  8
0
  6
Continuous
 62
     0
370
     0
100
AcDbEllipse
 10
620.897504
 20
249.612043
 30
0.0
 11
6.500001631229797
 21
11.25833307457059
 31
0.0
210
0.0
220
0.0
230
1.0
 40
0.57735
 41
1.05853135915106
 42
3.141592630739633
  0
ELLIPSE
  5
367
330
280
100
AcDbEntity
  8
0
  6
Continuous
 62
     0
370
     0
100
AcDbEllipse
 10
624.433038
 20
247.570802
 30
0.0
 11
4.000001631229792
 21
6.928206055648387
 31
0.0
210
0.0
220
0.0
230
1.0
 40
0.57735
 41
4.20012401274084
 42
7.341716666330632
  0
ELLIPSE
  5
368
330
280
100
AcDbEntity
  8
0
  6
Continuous
 62
     0
370
     0
100
AcDbEllipse
 10
624.433038
 20
247.570802
 30
0.0
 11
4.000001631229792
 21
6.928206055648387
 31
0.0
210
0.0
220
0.0
230
1.0
 40
0.57735
 41
1.058531359151049
 42
4.20012401274084
  0
ELLIPSE
  5
369
330
280
100
AcDbEntity
  8
0
  6
Continuous
 62
     0
370
    30
100
AcDbEllipse
 10
624.433038
 20
247.570802
 30
0.0
 11
3.550001631229805
 21
6.148783192242413
 31
0.0
210
0.0
220
0.0
230
1.0
 40
0.57735
 41
1.058531359151052
 42
4.20012401274084
  0
LWPOLYLINE
  5
36A
330
280
100
AcDbEntity
  8
0
  6
Continuous
 62
     0
370
    30
100
AcDbPolyline
 90
       45
 70
     0
 43
0.0
 10
614.397522
 20
238.353714
 10
615.094788
 20
237.998688
 10
615.827148
 20
237.715744
 10
616.585022
 20
237.506119
 10
617.359131
 20
237.371033
 10
618.140137
 20
237.311615
 10
618.921265
 20
237.326431
 10
619.698547
 20
237.411438
 10
620.468079
 20
237.562439
 10
621.225891
 20
237.775253
 10
621.968506
 20
238.045914
 10
622.694336
 20
238.37146
 10
623.402222
 20
238.749283
 10
624.091187
 20
239.176743
 10
624.76001
 20
239.651215
 10
625.407715
 20
240.170059
 10
626.033203
 20
240.730637
 10
626.635254
 20
241.330261
 10
627.212097
 20
241.965851
 10
627.761719
 20
242.63414
 10
628.282043
 20
243.33194
 10
628.770996
 20
244.055984
 10
629.226685
 20
244.803055
 10
629.646973
 20
245.569931
 10
630.029846
 20
246.353378
 10
630.373596
 20
247.150436
 10
630.676758
 20
247.958221
 10
630.937683
 20
248.773895
 10
631.154785
 20
249.594574
 10
631.326599
 20
250.417419
 10
631.451538
 20
251.239578
 10
631.528015
 20
252.058167
 10
631.554504
 20
252.870361
 10
631.529175
 20
253.673447
 10
631.449768
 20
254.464966
 10
631.314148
 20
255.242432
 10
631.120239
 20
256.003357
 10
630.865906
 20
256.744812
 10
630.550293
 20
257.461334
 10
630.172913
 20
258.146393
 10
629.733154
 20
258.79364
 10
629.230957
 20
259.396484
 10
628.670715
 20
259.948029
 10
628.058655
 20
260.440979
 10
627.397522
 20
260.870361
  0
ELLIPSE
  5
36B
330
280
100
AcDbEntity
  8
0
  6
Continuous
 62
     0
370
    30
100
AcDbEllipse
 10
624.433038
 20
247.570802
 30
0.0
 11
3.500000000000001
 21
6.062177826491071
 31
0.0
210
0.0
220
0.0
230
1.0
 40
0.57735
 41
4.195307606067371
 42
4.218124427553272
  0
ELLIPSE
  5
36C
330
280
100
AcDbEntity
  8
0
  6
Continuous
 62
     0
370
    30
100
AcDbEllipse
 10
624.433038
 20
247.570802
 30
0.0
 11
3.500000000000001
 21
6.062177826491071
 31
0.0
210
0.0
220
0.0
230
1.0
 40
0.57735
 41
4.218124427553295
 42
7.33690025965717
  0
ENDBLK
  5
36E
330
280
100
AcDbEntity
  8
0
100
AcDbBlockEnd
  0
BLOCK
  5
3B9
330
370
100
AcDbEntity
  8
0
100
AcDbBlockBegin
  2
e
 70
     0
 10
110.094521
 20
0.0
 30
0.0
  3
e
  1

  0
LINE
  5
371
330
370
100
AcDbEntity
  8
0
  6
Continuous
 62
     0
370
    30
100
AcDbLine
 10
36.09441
 20
465.899923
 30
0.0
 11
36.09441
 21
450.578297
 31
0.0
  0
LINE
  5
372
330
370
100
AcDbEntity
  8
0
  6
Continuous
 62
     0
370
    30
100
AcDbLine
 10
36.09441
 20
450.578297
 30
0.0
 11
36.09441
 21
435.25667
 31
0.0
  0
LINE
  5
373
330
370
100
AcDbEntity
  8
0
  6
Continuous
 62
     0
370
     0
100
AcDbLine
 10
42.733402
 20
473.783302
 30
0.0
 11
42.733402
 21
450.578297
 31
0.0
  0
LINE
  5
374
330
370
100
AcDbEntity
  8
0
  6
Continuous
 62
     0
370
     0
100
AcDbLine
 10
42.733402
 20
450.578297
 30
0.0
 11
42.733402
 21
427.373291
 31
0.0
  0
LINE
  5
375
330
370
100
AcDbEntity
  8
0
  6
Continuous
 62
     0
370
     0
100
AcDbLine
 10
66.612507
 20
477.905857
 30
0.0
 11
66.612507
 21
450.578297
 31
0.0
  0
LINE
  5
376
330
370
100
AcDbEntity
  8
0
  6
Continuous
 62
     0
370
     0
100
AcDbLine
 10
66.612507
 20
450.578297
 30
0.0
 11
66.612507
 21
423.250737
 31
0.0
  0
LINE
  5
377
330
370
100
AcDbEntity
  8
0
  6
Continuous
 62
     0
370
     0
100
AcDbLine
 10
71.612769
 20
480.582657
 30
0.0
 11
71.612769
 21
450.578297
 31
0.0
  0
LINE
  5
378
330
370
100
AcDbEntity
  8
0
  6
Continuous
 62
     0
370
     0
100
AcDbLine
 10
71.612769
 20
450.578297
 30
0.0
 11
71.612769
 21
420.573936
 31
0.0
  0
LINE
  5
379
330
370
100
AcDbEntity
  8
0
  6
Continuous
 62
     0
370
    30
100
AcDbLine
 10
77.49441
 20
483.078297
 30
0.0
 11
77.49441
 21
450.578297
 31
0.0
  0
LINE
  5
37A
330
370
100
AcDbEntity
  8
0
  6
Continuous
 62
     0
370
    30
100
AcDbLine
 10
77.49441
 20
450.578297
 30
0.0
 11
77.49441
 21
418.078297
 31
0.0
  0
ARC
  5
37B
330
370
100
AcDbEntity
  8
0
  6
Continuous
 62
     0
370
    30
100
AcDbCircle
 10
77.41997
 20
426.081508
 30
0.0
 40
8.003557317581398
100
AcDbArc
 50
223.483091
 51
270.532911
  0
ARC
  5
37C
330
370
100
AcDbEntity
  8
0
  6
Continuous
 62
     0
370
    30
100
AcDbCircle
 10
77.41997
 20
475.075086
 30
0.0
 40
8.003557317581405
100
AcDbArc
 50
89.467089
 51
136.516909
  0
ARC
  5
37D
330
370
100
AcDbEntity
  8
0
  6
Continuous
 62
     0
370
    30
100
AcDbCircle
 10
65.080129
 20
414.379614
 30
0.0
 40
9.002500051659954
100
AcDbArc
 50
43.477282
 51
80.199571
  0
ARC
  5
37E
330
370
100
AcDbEntity
  8
0
  6
Continuous
 62
     0
370
    30
100
AcDbCircle
 10
65.080129
 20
486.77698
 30
0.0
 40
9.00250005165995
100
AcDbArc
 50
279.800429
 51
316.522718
  0
LINE
  5
37F
330
370
100
AcDbEntity
  8
0
  6
Continuous
 62
     0
370
    30
100
AcDbLine
 10
42.733402
 20
427.373291
 30
0.0
 11
66.612507
 21
423.250737
 31
0.0
  0
LINE
  5
380
330
370
100
AcDbEntity
  8
0
  6
Continuous
 62
     0
370
    30
100
AcDbLine
 10
42.733402
 20
473.783302
 30
0.0
 11
66.612507
 21
477.905857
 31
0.0
  0
ARC
  5
381
330
370
100
AcDbEntity
  8
0
  6
Continuous
 62
     0
370
    30
100
AcDbCircle
 10
44.095581
 20
435.257656
 30
0.0
 40
8.001170850855836
100
AcDbArc
 50
180.014441
 51
260.197794
  0
ARC
  5
382
330
370
100
AcDbEntity
  8
0
  6
Continuous
 62
     0
370
    30
100
AcDbCircle
 10
44.095581
 20
465.898937
 30
0.0
 40
8.00117085085585
100
AcDbArc
 50
99.802206
 51
179.985559
  0
LINE
  5
383
330
370
100
AcDbEntity
  8
0
  6
Continuous
 62
     0
370
     0
100
AcDbLine
 10
27.731684
 20
460.042582
 30
0.0
 11
27.731684
 21
453.294909
 31
0.0
  0
LINE
  5
384
330
370
100
AcDbEntity
  8
0
  6
Continuous
 62
     0
370
     0
100
AcDbLine
 10
27.731684
 20
453.294909
 30
0.0
 11
27.731684
 21
441.114011
 31
0.0
  0
LINE
  5
385
330
370
100
AcDbEntity
  8
0
  6
Continuous
 62
     0
370
    30
100
AcDbLine
 10
22.59441
 20
452.169249
 30
0.0
 11
22.940893
 21
453.112233
 31
0.0
  0
LINE
  5
386
330
370
100
AcDbEntity
  8
0
  6
Continuous
 62
     0
370
     0
100
AcDbLine
 10
22.59441
 20
452.169249
 30
0.0
 11
22.59441
 21
438.927184
 31
0.0
  0
ARC
  5
387
330
370
100
AcDbEntity
  8
0
  6
Continuous
 62
     0
370
    30
100
AcDbCircle
 10
21.878036
 20
437.918096
 30
0.0
 40
1.237517207946775
100
AcDbArc
 50
10.607515
 51
54.628209
  0
LINE
  5
388
330
370
100
AcDbEntity
  8
0
  6
Continuous
 62
     0
370
     0
100
AcDbLine
 10
32.434109
 20
456.8284
 30
0.0
 11
32.434109
 21
452.372316
 31
0.0
  0
LINE
  5
389
330
370
100
AcDbEntity
  8
0
  6
Continuous
 62
     0
370
     0
100
AcDbLine
 10
32.434109
 20
452.372316
 30
0.0
 11
32.434109
 21
444.328193
 31
0.0
  0
ARC
  5
38A
330
370
100
AcDbEntity
  8
0
  6
Continuous
 62
     0
370
    30
100
AcDbCircle
 10
18.077124
 20
454.182128
 30
0.0
 40
4.945457445202185
100
AcDbArc
 50
192.514525
 51
335.9825
  0
ELLIPSE
  5
38B
330
370
100
AcDbEntity
  8
0
  6
Continuous
 62
     0
370
     0
100
AcDbEllipse
 10
18.094407
 20
460.285129
 30
0.0
 11
-6.28571428568847
 21
-9.169342511737672E-7
 31
0.0
210
0.0
220
0.0
230
1.0
 40
0.957919
 41
3.141592501305642
 42
6.283185154895428
  0
ELLIPSE
  5
38C
330
370
100
AcDbEntity
  8
0
  6
Continuous
 62
     0
370
     0
100
AcDbEllipse
 10
18.094407
 20
460.285129
 30
0.0
 11
-6.28571428568847
 21
-9.169342511737672E-7
 31
0.0
210
0.0
220
0.0
230
1.0
 40
0.957919
 41
6.283185154895433
 42
9.42477780848523
  0
ELLIPSE
  5
38D
330
370
100
AcDbEntity
  8
0
  6
Continuous
 62
     0
370
     0
100
AcDbEllipse
 10
18.094408
 20
471.532144
 30
0.0
 11
-4.999999999979931
 21
6.549009873598842E-8
 31
0.0
210
0.0
220
0.0
230
-1.0
 40
0.287038
 41
-0.0000000456315901
 42
3.141592607958196
  0
LINE
  5
38E
330
370
100
AcDbEntity
  8
0
  6
Continuous
 62
     0
370
    30
100
AcDbLine
 10
13.094408
 20
465.456829
 30
0.0
 11
13.094408
 21
471.532144
 31
0.0
  0
ELLIPSE
  5
38F
330
370
100
AcDbEntity
  8
0
  6
Continuous
 62
     0
370
     0
100
AcDbEllipse
 10
18.094409
 20
477.457732
 30
0.0
 11
-7.142857142828414
 21
9.355728390855413E-8
 31
0.0
210
0.0
220
0.0
230
-1.0
 40
0.287038
 41
6.045028893823659
 42
6.283185261547958
  0
ELLIPSE
  5
390
330
370
100
AcDbEntity
  8
0
  6
Continuous
 62
     0
370
     0
100
AcDbEllipse
 10
18.094409
 20
477.457732
 30
0.0
 11
-7.142857142828414
 21
9.355728390855413E-8
 31
0.0
210
0.0
220
0.0
230
-1.0
 40
0.287038
 41
3.141592607958205
 42
3.379748975682481
  0
ELLIPSE
  5
391
330
370
100
AcDbEntity
  8
0
  6
Continuous
 62
     0
370
     0
100
AcDbEllipse
 10
18.094409
 20
477.457732
 30
0.0
 11
-7.142857142828414
 21
9.355728390855413E-8
 31
0.0
210
0.0
220
0.0
230
-1.0
 40
0.287038
 41
-0.0000000456316069
 42
3.141592607958205
  0
ELLIPSE
  5
392
330
370
100
AcDbEntity
  8
0
  6
Continuous
 62
     0
370
     0
100
AcDbEllipse
 10
18.094409
 20
482.972439
 30
0.0
 11
-6.285714285688536
 21
8.233040983952150E-8
 31
0.0
210
0.0
220
0.0
230
-1.0
 40
0.287038
 41
0.4448639677038679
 42
2.69672843455492
  0
ELLIPSE
  5
393
330
370
100
AcDbEntity
  8
0
  6
Continuous
 62
     0
370
     0
100
AcDbEllipse
 10
18.094408
 20
429.624449
 30
0.0
 11
4.999999999979931
 21
-6.549009873598842E-8
 31
0.0
210
0.0
220
0.0
230
1.0
 40
0.287038
 41
0.0000000456316069
 42
3.1415926992214
  0
LINE
  5
394
330
370
100
AcDbEntity
  8
0
  6
Continuous
 62
     0
370
    30
100
AcDbLine
 10
13.094408
 20
438.125348
 30
0.0
 11
13.094408
 21
429.624449
 31
0.0
  0
LWPOLYLINE
  5
395
330
370
100
AcDbEntity
  8
0
  6
Continuous
 62
     0
370
    30
100
AcDbPolyline
 90
       24
 70
     0
 43
0.0
 10
22.59441
 20
438.927185
 10
22.310869
 20
439.165649
 10
21.971386
 20
439.40451
 10
21.580734
 20
439.636749
 10
21.143488
 20
439.855438
 10
20.664455
 20
440.05368
 10
20.14897
 20
440.224396
 10
19.603191
 20
440.361023
 10
19.034315
 20
440.457642
 10
18.450445
 20
440.509735
 10
17.860849
 20
440.514648
 10
17.275
 20
440.47226
 10
16.702314
 20
440.384552
 10
16.15106
 20
440.255859
 10
15.628772
 20
440.091675
 10
15.141701
 20
439.898621
 10
14.695347
 20
439.683563
 10
14.294579
 20
439.453552
 10
13.944144
 20
439.215576
 10
13.648673
 20
438.976532
 10
13.412335
 20
438.742859
 10
13.239092
 20
438.520752
 10
13.132445
 20
438.31601
 10
13.094408
 20
438.125336
  0
ELLIPSE
  5
396
330
370
100
AcDbEntity
  8
0
  6
Continuous
 62
     0
370
     0
100
AcDbEllipse
 10
18.094408
 20
423.698861
 30
0.0
 11
7.142857142828414
 21
-9.355728390855413E-8
 31
0.0
210
0.0
220
0.0
230
1.0
 40
0.287038
 41
0.0000000456316069
 42
3.141592699221388
  0
ELLIPSE
  5
397
330
370
100
AcDbEntity
  8
0
  6
Continuous
 62
     0
370
     0
100
AcDbEllipse
 10
18.094408
 20
418.184154
 30
0.0
 11
6.285714285688536
 21
-8.233040983952150E-8
 31
0.0
210
0.0
220
0.0
230
1.0
 40
0.287038
 41
0.0000000456316069
 42
3.1415926992214
  0
ELLIPSE
  5
398
330
370
100
AcDbEntity
  8
0
  6
Continuous
 62
     0
370
     0
100
AcDbEllipse
 10
18.094408
 20
418.184154
 30
0.0
 11
6.285714285688536
 21
-8.233040983952150E-8
 31
0.0
210
0.0
220
0.0
230
1.0
 40
0.287038
 41
5.838319079370899
 42
6.283185352811193
  0
ELLIPSE
  5
399
330
370
100
AcDbEntity
  8
0
  6
Continuous
 62
     0
370
     0
100
AcDbEllipse
 10
18.094408
 20
418.184154
 30
0.0
 11
6.285714285688536
 21
-8.233040983952150E-8
 31
0.0
210
0.0
220
0.0
230
1.0
 40
0.287038
 41
3.1415926992214
 42
3.586458046682923
  0
LINE
  5
39A
330
370
100
AcDbEntity
  8
0
  6
Continuous
 62
     0
370
     0
100
AcDbLine
 10
6.09441
 20
437.578293
 30
0.0
 11
6.09441
 21
438.060198
 31
0.0
  0
LINE
  5
39B
330
370
100
AcDbEntity
  8
0
  6
Continuous
 62
     0
370
     0
100
AcDbLine
 10
6.09441
 20
438.060198
 30
0.0
 11
6.09441
 21
463.5783
 31
0.0
  0
LINE
  5
39C
330
370
100
AcDbEntity
  8
0
  6
Continuous
 62
     0
370
    30
100
AcDbLine
 10
1.09441
 20
442.87485
 30
0.0
 11
1.09441
 21
458.5783
 31
0.0
  0
LINE
  5
39D
330
370
100
AcDbEntity
  8
0
  6
Continuous
 62
     0
370
    30
100
AcDbLine
 10
1.09441
 20
442.578293
 30
0.0
 11
1.09441
 21
442.87485
 31
0.0
  0
LINE
  5
39E
330
370
100
AcDbEntity
  8
0
  6
Continuous
 62
     0
370
    30
100
AcDbLine
 10
6.09441
 20
463.578297
 30
0.0
 11
11.365569
 21
463.578297
 31
0.0
  0
LINE
  5
39F
330
370
100
AcDbEntity
  8
0
  6
Continuous
 62
     0
370
    30
100
AcDbLine
 10
6.09441
 20
437.578297
 30
0.0
 11
13.094408
 21
437.578297
 31
0.0
  0
ARC
  5
3A0
330
370
100
AcDbEntity
  8
0
  6
Continuous
 62
     0
370
    30
100
AcDbCircle
 10
6.095323
 20
442.579206
 30
0.0
 40
5.000913014709492
100
AcDbArc
 50
180.01046
 51
269.98954
  0
ARC
  5
3A1
330
370
100
AcDbEntity
  8
0
  6
Continuous
 62
     0
370
    30
100
AcDbCircle
 10
6.095323
 20
458.577387
 30
0.0
 40
5.000913014709605
100
AcDbArc
 50
90.01046
 51
179.98954
  0
ARC
  5
3A2
330
370
100
AcDbEntity
  8
0
  6
Continuous
 62
     0
370
    30
100
AcDbCircle
 10
18.094408
 20
426.832238
 30
0.0
 40
11.00067325499707
100
AcDbArc
 50
238.950457
 51
301.049528
  0
ARC
  5
3A3
330
370
100
AcDbEntity
  8
0
  6
Continuous
 62
     0
370
    30
100
AcDbCircle
 10
21.645489
 20
421.310778
 30
0.0
 40
4.443001668903065
100
AcDbArc
 50
298.541363
 51
40.267515
  0
ARC
  5
3A4
330
370
100
AcDbEntity
  8
0
  6
Continuous
 62
     0
370
    30
100
AcDbCircle
 10
14.513943
 20
421.312405
 30
0.0
 40
4.419564918462289
100
AcDbArc
 50
139.502366
 51
179.789709
  0
ARC
  5
3A5
330
370
100
AcDbEntity
  8
0
  6
Continuous
 62
     0
370
    30
100
AcDbCircle
 10
14.670399
 20
421.392914
 30
0.0
 40
4.576442757846328
100
AcDbArc
 50
180.804885
 51
240.552347
  0
ARC
  5
3A6
330
370
100
AcDbEntity
  8
0
  6
Continuous
 62
     0
370
    30
100
AcDbCircle
 10
31.564599
 20
429.578757
 30
0.0
 40
8.470314352427385
100
AcDbArc
 50
179.690923
 51
219.57394
  0
ARC
  5
3A7
330
370
100
AcDbEntity
  8
0
  6
Continuous
 62
     0
370
    30
100
AcDbCircle
 10
4.624217
 20
429.578757
 30
0.0
 40
8.470314314062414
100
AcDbArc
 50
320.426056
 51
0.309074
  0
LINE
  5
3A8
330
370
100
AcDbEntity
  8
0
  6
Continuous
 62
     0
370
    30
100
AcDbLine
 10
23.094408
 20
438.147163
 30
0.0
 11
23.094408
 21
429.624449
 31
0.0
  0
ARC
  5
3A9
330
370
100
AcDbEntity
  8
0
  6
Continuous
 62
     0
370
    30
100
AcDbCircle
 10
18.277267
 20
441.873064
 30
0.0
 40
7.829246776864045
100
AcDbArc
 50
307.971926
 51
332.376464
  0
ARC
  5
3AA
330
370
100
AcDbEntity
  8
0
  6
Continuous
 62
     0
370
    30
100
AcDbCircle
 10
17.955909
 20
441.908674
 30
0.0
 40
7.885729966404227
100
AcDbArc
 50
213.308098
 51
231.93949
  0
ARC
  5
3AB
330
370
100
AcDbEntity
  8
0
  6
Continuous
 62
     0
370
    30
100
AcDbCircle
 10
18.094409
 20
474.324355
 30
0.0
 40
11.00067325499603
100
AcDbArc
 50
58.950472
 51
121.049543
  0
ARC
  5
3AC
330
370
100
AcDbEntity
  8
0
  6
Continuous
 62
     0
370
    30
100
AcDbCircle
 10
21.64549
 20
479.845815
 30
0.0
 40
4.443001689205705
100
AcDbArc
 50
319.732487
 51
61.458639
  0
ARC
  5
3AD
330
370
100
AcDbEntity
  8
0
  6
Continuous
 62
     0
370
    30
100
AcDbCircle
 10
14.513944
 20
479.844188
 30
0.0
 40
4.419564941047918
100
AcDbArc
 50
180.210293
 51
220.497636
  0
ARC
  5
3AE
330
370
100
AcDbEntity
  8
0
  6
Continuous
 62
     0
370
    30
100
AcDbCircle
 10
14.6704
 20
479.76368
 30
0.0
 40
4.576442700446064
100
AcDbArc
 50
119.447654
 51
179.195117
  0
ARC
  5
3AF
330
370
100
AcDbEntity
  8
0
  6
Continuous
 62
     0
370
    30
100
AcDbCircle
 10
31.5646
 20
471.577836
 30
0.0
 40
8.470314314062898
100
AcDbArc
 50
140.426056
 51
180.309074
  0
ARC
  5
3B0
330
370
100
AcDbEntity
  8
0
  6
Continuous
 62
     0
370
    30
100
AcDbCircle
 10
4.624217
 20
471.577837
 30
0.0
 40
8.470314352427309
100
AcDbArc
 50
359.690923
 51
39.57394
  0
LINE
  5
3B1
330
370
100
AcDbEntity
  8
0
  6
Continuous
 62
     0
370
    30
100
AcDbLine
 10
23.094408
 20
465.455421
 30
0.0
 11
23.094408
 21
471.532144
 31
0.0
  0
CIRCLE
  5
3B2
330
370
100
AcDbEntity
  8
0
  6
Continuous
 62
     0
370
    30
100
AcDbCircle
 10
18.082366
 20
459.335173
 30
0.0
 40
7.923577789830323
  0
LINE
  5
3B3
330
370
100
AcDbEntity
  8
0
  6
Continuous
 62
     0
370
    30
100
AcDbLine
 10
32.434109
 20
444.328193
 30
0.0
 11
36.09441
 21
444.316416
 31
0.0
  0
LINE
  5
3B4
330
370
100
AcDbEntity
  8
0
  6
Continuous
 62
     0
370
    30
100
AcDbLine
 10
32.434109
 20
456.8284
 30
0.0
 11
36.09441
 21
456.840178
 31
0.0
  0
ARC
  5
3B5
330
370
100
AcDbEntity
  8
0
  6
Continuous
 62
     0
370
    30
100
AcDbCircle
 10
32.400463
 20
439.330448
 30
0.0
 40
4.997858748698046
100
AcDbArc
 50
89.614276
 51
159.092181
  0
ARC
  5
3B6
330
370
100
AcDbEntity
  8
0
  6
Continuous
 62
     0
370
    30
100
AcDbCircle
 10
32.400463
 20
461.826146
 30
0.0
 40
4.997858748697953
100
AcDbArc
 50
200.907819
 51
270.385724
  0
ARC
  5
3B7
330
370
100
AcDbEntity
  8
0
  6
Continuous
 62
     0
370
    30
100
AcDbCircle
 10
22.601248
 20
458.08311
 30
0.0
 40
5.491894552791995
100
AcDbArc
 50
20.903409
 51
61.591032
  0
ARC
  5
3B8
330
370
100
AcDbEntity
  8
0
  6
Continuous
 62
     0
370
    30
100
AcDbCircle
 10
22.599202
 20
443.073307
 30
0.0
 40
5.493743309181161
100
AcDbArc
 50
275.171668
 51
339.105928
  0
ENDBLK
  5
3BA
330
370
100
AcDbEntity
  8
0
100
AcDbBlockEnd
  0
ENDSEC
  0
SECTION
  2
ENTITIES
  0
INSERT
  5
16C
330
1F
100
AcDbEntity
  8
0
  6
Continuous
 62
     7
420
 16250871
370
     0
100
AcDbBlockReference
  2
a
 10
89.706009
 20
167.540405
 30
0.0
  0
INSERT
  5
233
330
1F
100
AcDbEntity
  8
0
  6
Continuous
 62
     7
420
 16250871
370
     0
100
AcDbBlockReference
  2
b
 10
89.706009
 20
167.540405
 30
0.0
  0
INSERT
  5
27F
330
1F
100
AcDbEntity
  8
0
  6
Continuous
 62
     7
420
 16250871
370
     0
100
AcDbBlockReference
  2
c
 10
89.706009
 20
167.540405
 30
0.0
  0
INSERT
  5
36F
330
1F
100
AcDbEntity
  8
0
  6
Continuous
 62
     7
420
 16250871
370
     0
100
AcDbBlockReference
  2
d
 10
89.706009
 20
167.540405
 30
0.0
  0
INSERT
  5
3BB
330
1F
100
AcDbEntity
  8
0
  6
Continuous
 62
     7
420
 16250871
370
     0
100
AcDbBlockReference
  2
e
 10
110.094521
 20
0.0
 30
0.0
  0
ENDSEC
  0
SECTION
  2
OBJECTS
  0
DICTIONARY
  5
C
330
0
100
AcDbDictionary
281
     1
  3
ACAD_DETAILVIEWSTYLE
350
3F3
  3
ACAD_GROUP
350
D
  3
ACAD_LAYOUT
350
1A
  3
ACAD_MATERIAL
350
43
  3
ACAD_MLEADERSTYLE
350
6B
  3
ACAD_MLINESTYLE
350
17
  3
ACAD_PLOTSETTINGS
350
19
  3
ACAD_PLOTSTYLENAME
350
E
  3
ACAD_SCALELIST
350
47
  3
ACAD_SECTIONVIEWSTYLE
350
3F4
  3
ACAD_TABLESTYLE
350
69
  3
ACAD_VISUALSTYLE
350
2A
  3
ACDB_RECOMPOSE_DATA
350
3F0
  3
AcDbVariableDictionary
350
3BC
  0
SUN
  5
6D
330
29
100
AcDbSun
 90
        1
290
     0
 63
     7
421
 16777215
 40
1.0
291
     1
 91
  2455826
 92
 54000000
292
     0
 70
     2
 71
   256
280
     1
  0
DICTIONARY
  5
3F3
102
{ACAD_REACTORS
330
C
102
}
330
C
100
AcDbDictionary
281
     1
  0
DICTIONARY
  5
D
102
{ACAD_REACTORS
330
C
102
}
330
C
100
AcDbDictionary
281
     1
  0
DICTIONARY
  5
1A
102
{ACAD_REACTORS
330
C
102
}
330
C
100
AcDbDictionary
281
     1
  3
Layout1
350
1E
  3
Layout2
350
26
  3
Model
350
22
  0
DICTIONARY
  5
43
102
{ACAD_REACTORS
330
C
102
}
330
C
100
AcDbDictionary
281
     1
  3
ByBlock
350
45
  3
ByLayer
350
44
  3
Global
350
46
  0
DICTIONARY
  5
6B
102
{ACAD_REACTORS
330
C
102
}
330
C
100
AcDbDictionary
281
     1
  3
Standard
350
6C
  0
DICTIONARY
  5
17
102
{ACAD_REACTORS
330
C
102
}
330
C
100
AcDbDictionary
281
     1
  3
Standard
350
18
  0
DICTIONARY
  5
19
102
{ACAD_REACTORS
330
C
102
}
330
C
100
AcDbDictionary
281
     1
  0
ACDBDICTIONARYWDFLT
  5
E
102
{ACAD_REACTORS
330
C
102
}
330
C
100
AcDbDictionary
281
     1
  3
Normal
350
F
100
AcDbDictionaryWithDefault
340
F
  0
DICTIONARY
  5
47
102
{ACAD_REACTORS
330
C
102
}
330
C
100
AcDbDictionary
281
     1
  3
A0
350
48
  3
A1
350
49
  3
A2
350
4A
  3
A3
350
4B
  3
A4
350
4C
  3
A5
350
4D
  3
A6
350
4E
  3
A7
350
4F
  3
A8
350
50
  3
A9
350
51
  3
B0
350
52
  3
B1
350
53
  3
B2
350
54
  3
B3
350
55
  3
B4
350
56
  3
B5
350
57
  3
B6
350
58
  3
B7
350
59
  3
B8
350
5A
  3
B9
350
5B
  3
C0
350
5C
  3
C1
350
5D
  3
C2
350
5E
  3
C3
350
5F
  3
C4
350
60
  3
C5
350
61
  3
C6
350
62
  3
C7
350
63
  3
C8
350
64
  3
C9
350
65
  3
D0
350
66
  3
D1
350
67
  3
D2
350
68
  0
DICTIONARY
  5
3F4
102
{ACAD_REACTORS
330
C
102
}
330
C
100
AcDbDictionary
281
     1
  0
DICTIONARY
  5
69
102
{ACAD_REACTORS
330
C
102
}
330
C
100
AcDbDictionary
281
     1
  3
Standard
350
6A
  0
DICTIONARY
  5
2A
102
{ACAD_REACTORS
330
C
102
}
330
C
100
AcDbDictionary
281
     1
  3
2dWireframe
350
2F
  3
Basic
350
32
  3
Brighten
350
36
  3
ColorChange
350
3A
  3
Conceptual
350
34
  3
Dim
350
35
  3
EdgeColorOff
350
3D
  3
Facepattern
350
39
  3
Flat
350
2B
  3
FlatWithEdges
350
2C
  3
Gouraud
350
2D
  3
GouraudWithEdges
350
2E
  3
Hidden
350
31
  3
JitterOff
350
3B
  3
Linepattern
350
38
  3
OverhangOff
350
3C
  3
Realistic
350
33
  3
Shaded
350
42
  3
Shaded with edges
350
41
  3
Shades of Gray
350
3E
  3
Sketchy
350
3F
  3
Thicken
350
37
  3
Wireframe
350
30
  3
X-Ray
350
40
  0
XRECORD
  5
3F0
102
{ACAD_REACTORS
330
C
102
}
330
C
100
AcDbXrecord
280
     1
 90
        1
330
6A
  0
DICTIONARY
  5
3BC
102
{ACAD_REACTORS
330
C
102
}
330
C
100
AcDbDictionary
281
     1
  3
CANNOSCALE
350
3BD
  3
CMLEADERSTYLE
350
3F2
  3
CTABLESTYLE
350
3F1
  0
LAYOUT
  5
1E
102
{ACAD_REACTORS
330
1A
102
}
330
1A
100
AcDbPlotSettings
  1

  2
none_device
  4

  6

 40
0.0
 41
0.0
 42
0.0
 43
0.0
 44
0.0
 45
0.0
 46
0.0
 47
0.0
 48
0.0
 49
0.0
140
0.0
141
0.0
142
1.0
143
1.0
 70
   688
 72
     1
 73
     0
 74
     5
  7

 75
    16
 76
     0
 77
     2
 78
   300
147
1.0
148
0.0
149
0.0
100
AcDbLayout
  1
Layout1
 70
     1
 71
     1
 10
0.0
 20
0.0
 11
420.0
 21
297.0
 12
0.0
 22
0.0
 32
0.0
 14
1.000000E+20
 24
1.000000E+20
 34
1.000000E+20
 15
-1.000000E+20
 25
-1.000000E+20
 35
-1.000000E+20
146
0.0
 13
0.0
 23
0.0
 33
0.0
 16
1.0
 26
0.0
 36
0.0
 17
0.0
 27
1.0
 37
0.0
 76
     0
330
1B
  0
LAYOUT
  5
26
102
{ACAD_REACTORS
330
1A
102
}
330
1A
100
AcDbPlotSettings
  1

  2
none_device
  4

  6

 40
0.0
 41
0.0
 42
0.0
 43
0.0
 44
0.0
 45
0.0
 46
0.0
 47
0.0
 48
0.0
 49
0.0
140
0.0
141
0.0
142
1.0
143
1.0
 70
   688
 72
     1
 73
     0
 74
     5
  7

 75
    16
 76
     0
 77
     2
 78
   300
147
1.0
148
0.0
149
0.0
100
AcDbLayout
  1
Layout2
 70
     1
 71
     2
 10
0.0
 20
0.0
 11
0.0
 21
0.0
 12
0.0
 22
0.0
 32
0.0
 14
0.0
 24
0.0
 34
0.0
 15
0.0
 25
0.0
 35
0.0
146
0.0
 13
0.0
 23
0.0
 33
0.0
 16
1.0
 26
0.0
 36
0.0
 17
0.0
 27
1.0
 37
0.0
 76
     0
330
23
  0
LAYOUT
  5
22
102
{ACAD_REACTORS
330
1A
102
}
330
1A
100
AcDbPlotSettings
  1

  2
none_device
  4
Letter_(8.50_x_11.00_Inches)
  6

 40
6.35
 41
6.35
 42
6.350005
 43
6.350005
 44
215.9
 45
279.4
 46
0.0
 47
0.0
 48
0.0
 49
0.0
140
0.0
141
0.0
142
1.0
143
1.0
 70
  1712
 72
     1
 73
     0
 74
     0
  7

 75
     0
 76
     0
 77
     2
 78
   300
147
1.0
148
0.0
149
0.0
100
AcDbLayout
  1
Model
 70
     1
 71
     0
 10
0.0
 20
0.0
 11
420.0
 21
297.0
 12
0.0
 22
0.0
 32
0.0
 14
1.000000E+20
 24
1.000000E+20
 34
1.000000E+20
 15
-1.000000E+20
 25
-1.000000E+20
 35
-1.000000E+20
146
0.0
 13
0.0
 23
0.0
 33
0.0
 16
1.0
 26
0.0
 36
0.0
 17
0.0
 27
1.0
 37
0.0
 76
     0
330
1F
331
29
  0
MATERIAL
  5
45
102
{ACAD_REACTORS
330
43
102
}
330
43
100
AcDbMaterial
  1
ByBlock
 72
     1
 94
      127
  0
MATERIAL
  5
44
102
{ACAD_REACTORS
330
43
102
}
330
43
100
AcDbMaterial
  1
ByLayer
 72
     1
 94
      127
  0
MATERIAL
  5
46
102
{ACAD_REACTORS
330
43
102
}
330
43
100
AcDbMaterial
  1
Global
 72
     1
 94
      127
  0
MLEADERSTYLE
  5
6C
102
{ACAD_REACTORS
330
6B
102
}
330
6B
100
AcDbMLeaderStyle
179
     2
170
     2
171
     1
172
     0
 90
        2
 40
0.0
 41
0.0
173
     1
 91
-1056964608
340
14
 92
       -2
290
     1
 42
2.0
291
     1
 43
8.0
  3
Standard
341
0
 44
4.0
300

342
11
174
     1
178
     6
175
     1
176
     0
 93
-1056964608
 45
4.0
292
     0
297
     0
 46
4.0
343
0
 94
-1056964608
 47
1.0
 49
1.0
140
1.0
293
     1
141
0.0
294
     1
177
     0
142
1.0
295
     0
296
     0
143
3.75
271
     0
272
     9
273
     9
  0
MLINESTYLE
  5
18
102
{ACAD_REACTORS
330
17
102
}
330
17
100
AcDbMlineStyle
  2
Standard
 70
     0
  3

 62
   256
 51
90.0
 52
90.0
 71
     2
 49
0.5
 62
   256
  6
BYLAYER
 49
-0.5
 62
   256
  6
BYLAYER
  0
ACDBPLACEHOLDER
  5
F
102
{ACAD_REACTORS
330
E
102
}
330
E
  0
SCALE
  5
48
102
{ACAD_REACTORS
330
47
102
}
330
47
100
AcDbScale
 70
     0
300
1:1
140
1.0
141
1.0
290
     1
  0
SCALE
  5
49
102
{ACAD_REACTORS
330
47
102
}
330
47
100
AcDbScale
 70
     0
300
1:2
140
1.0
141
2.0
290
     0
  0
SCALE
  5
4A
102
{ACAD_REACTORS
330
47
102
}
330
47
100
AcDbScale
 70
     0
300
1:4
140
1.0
141
4.0
290
     0
  0
SCALE
  5
4B
102
{ACAD_REACTORS
330
47
102
}
330
47
100
AcDbScale
 70
     0
300
1:5
140
1.0
141
5.0
290
     0
  0
SCALE
  5
4C
102
{ACAD_REACTORS
330
47
102
}
330
47
100
AcDbScale
 70
     0
300
1:8
140
1.0
141
8.0
290
     0
  0
SCALE
  5
4D
102
{ACAD_REACTORS
330
47
102
}
330
47
100
AcDbScale
 70
     0
300
1:10
140
1.0
141
10.0
290
     0
  0
SCALE
  5
4E
102
{ACAD_REACTORS
330
47
102
}
330
47
100
AcDbScale
 70
     0
300
1:16
140
1.0
141
16.0
290
     0
  0
SCALE
  5
4F
102
{ACAD_REACTORS
330
47
102
}
330
47
100
AcDbScale
 70
     0
300
1:20
140
1.0
141
20.0
290
     0
  0
SCALE
  5
50
102
{ACAD_REACTORS
330
47
102
}
330
47
100
AcDbScale
 70
     0
300
1:30
140
1.0
141
30.0
290
     0
  0
SCALE
  5
51
102
{ACAD_REACTORS
330
47
102
}
330
47
100
AcDbScale
 70
     0
300
1:40
140
1.0
141
40.0
290
     0
  0
SCALE
  5
52
102
{ACAD_REACTORS
330
47
102
}
330
47
100
AcDbScale
 70
     0
300
1:50
140
1.0
141
50.0
290
     0
  0
SCALE
  5
53
102
{ACAD_REACTORS
330
47
102
}
330
47
100
AcDbScale
 70
     0
300
1:100
140
1.0
141
100.0
290
     0
  0
SCALE
  5
54
102
{ACAD_REACTORS
330
47
102
}
330
47
100
AcDbScale
 70
     0
300
2:1
140
2.0
141
1.0
290
     0
  0
SCALE
  5
55
102
{ACAD_REACTORS
330
47
102
}
330
47
100
AcDbScale
 70
     0
300
4:1
140
4.0
141
1.0
290
     0
  0
SCALE
  5
56
102
{ACAD_REACTORS
330
47
102
}
330
47
100
AcDbScale
 70
     0
300
8:1
140
8.0
141
1.0
290
     0
  0
SCALE
  5
57
102
{ACAD_REACTORS
330
47
102
}
330
47
100
AcDbScale
 70
     0
300
10:1
140
10.0
141
1.0
290
     0
  0
SCALE
  5
58
102
{ACAD_REACTORS
330
47
102
}
330
47
100
AcDbScale
 70
     0
300
100:1
140
100.0
141
1.0
290
     0
  0
SCALE
  5
59
102
{ACAD_REACTORS
330
47
102
}
330
47
100
AcDbScale
 70
     0
300
1/128" = 1'-0"
140
0.007812
141
12.0
290
     0
  0
SCALE
  5
5A
102
{ACAD_REACTORS
330
47
102
}
330
47
100
AcDbScale
 70
     0
300
1/64" = 1'-0"
140
0.015625
141
12.0
290
     0
  0
SCALE
  5
5B
102
{ACAD_REACTORS
330
47
102
}
330
47
100
AcDbScale
 70
     0
300
1/32" = 1'-0"
140
0.03125
141
12.0
290
     0
  0
SCALE
  5
5C
102
{ACAD_REACTORS
330
47
102
}
330
47
100
AcDbScale
 70
     0
300
1/16" = 1'-0"
140
0.0625
141
12.0
290
     0
  0
SCALE
  5
5D
102
{ACAD_REACTORS
330
47
102
}
330
47
100
AcDbScale
 70
     0
300
3/32" = 1'-0"
140
0.09375
141
12.0
290
     0
  0
SCALE
  5
5E
102
{ACAD_REACTORS
330
47
102
}
330
47
100
AcDbScale
 70
     0
300
1/8" = 1'-0"
140
0.125
141
12.0
290
     0
  0
SCALE
  5
5F
102
{ACAD_REACTORS
330
47
102
}
330
47
100
AcDbScale
 70
     0
300
3/16" = 1'-0"
140
0.1875
141
12.0
290
     0
  0
SCALE
  5
60
102
{ACAD_REACTORS
330
47
102
}
330
47
100
AcDbScale
 70
     0
300
1/4" = 1'-0"
140
0.25
141
12.0
290
     0
  0
SCALE
  5
61
102
{ACAD_REACTORS
330
47
102
}
330
47
100
AcDbScale
 70
     0
300
3/8" = 1'-0"
140
0.375
141
12.0
290
     0
  0
SCALE
  5
62
102
{ACAD_REACTORS
330
47
102
}
330
47
100
AcDbScale
 70
     0
300
1/2" = 1'-0"
140
0.5
141
12.0
290
     0
  0
SCALE
  5
63
102
{ACAD_REACTORS
330
47
102
}
330
47
100
AcDbScale
 70
     0
300
3/4" = 1'-0"
140
0.75
141
12.0
290
     0
  0
SCALE
  5
64
102
{ACAD_REACTORS
330
47
102
}
330
47
100
AcDbScale
 70
     0
300
1" = 1'-0"
140
1.0
141
12.0
290
     0
  0
SCALE
  5
65
102
{ACAD_REACTORS
330
47
102
}
330
47
100
AcDbScale
 70
     0
300
1-1/2" = 1'-0"
140
1.5
141
12.0
290
     0
  0
SCALE
  5
66
102
{ACAD_REACTORS
330
47
102
}
330
47
100
AcDbScale
 70
     0
300
3" = 1'-0"
140
3.0
141
12.0
290
     0
  0
SCALE
  5
67
102
{ACAD_REACTORS
330
47
102
}
330
47
100
AcDbScale
 70
     0
300
6" = 1'-0"
140
6.0
141
12.0
290
     0
  0
SCALE
  5
68
102
{ACAD_REACTORS
330
47
102
}
330
47
100
AcDbScale
 70
     0
300
1'-0" = 1'-0"
140
12.0
141
12.0
290
     0
  0
TABLESTYLE
  5
6A
102
{ACAD_REACTORS
330
69
102
}
102
{ACAD_XDICTIONARY
360
3EE
102
}
330
69
100
AcDbTableStyle
  3
Standard
 70
     0
 71
     0
 40
0.06
 41
0.06
280
     0
281
     0
  7
Standard
140
4.5
170
     2
 62
     0
 63
   257
283
     0
 90
        4
 91
        0
  1

274
    -2
284
     1
 64
     0
275
    -2
285
     1
 65
     0
276
    -2
286
     1
 66
     0
277
    -2
287
     1
 67
     0
278
    -2
288
     1
 68
     0
279
    -2
289
     1
 69
     0
  7
Standard
140
6.0
170
     5
 62
     0
 63
   257
283
     0
 90
        4
 91
        0
  1

274
    -2
284
     1
 64
     0
275
    -2
285
     1
 65
     0
276
    -2
286
     1
 66
     0
277
    -2
287
     1
 67
     0
278
    -2
288
     1
 68
     0
279
    -2
289
     1
 69
     0
  7
Standard
140
4.5
170
     5
 62
     0
 63
   257
283
     0
 90
        4
 91
        0
  1

274
    -2
284
     1
 64
     0
275
    -2
285
     1
 65
     0
276
    -2
286
     1
 66
     0
277
    -2
287
     1
 67
     0
278
    -2
288
     1
 68
     0
279
    -2
289
     1
 69
     0
  0
VISUALSTYLE
  5
2F
102
{ACAD_REACTORS
330
2A
102
}
102
{ACAD_XDICTIONARY
360
3C6
102
}
330
2A
100
AcDbVisualStyle
  2
2dWireframe
 70
     4
177
     2
291
     0
 71
     0
176
     1
 72
     2
176
     1
 73
     0
176
     1
 90
        0
176
     1
 40
0.6
176
     1
 41
30.0
176
     1
 62
     5
 63
     7
421
 16777215
176
     1
 74
     1
176
     1
 91
        4
176
     1
 64
     7
176
     1
 65
   257
176
     1
 75
     1
176
     1
175
     1
176
     1
 42
1.0
176
     1
 92
        0
176
     1
 66
   257
176
     1
 43
1.0
176
     1
 76
     1
176
     1
 77
     6
176
     1
 78
     2
176
     1
 67
     7
176
     1
 79
     5
176
     1
170
     0
176
     1
171
     0
176
     1
290
     0
176
     1
 93
        1
176
     1
 44
0.0
176
     1
173
     0
176
     1
  0
VISUALSTYLE
  5
32
102
{ACAD_REACTORS
330
2A
102
}
102
{ACAD_XDICTIONARY
360
3CC
102
}
330
2A
100
AcDbVisualStyle
  2
Basic
 70
     7
177
     2
291
     1
 71
     1
176
     1
 72
     0
176
     1
 73
     1
176
     1
 90
        0
176
     1
 40
0.6
176
     1
 41
30.0
176
     1
 62
     5
 63
     7
421
 16777215
176
     1
 74
     0
176
     1
 91
        4
176
     1
 64
     7
176
     1
 65
   257
176
     1
 75
     1
176
     1
175
     1
176
     1
 42
1.0
176
     1
 92
        8
176
     1
 66
     7
176
     1
 43
1.0
176
     1
 76
     1
176
     1
 77
     6
176
     1
 78
     2
176
     1
 67
     7
176
     1
 79
     5
176
     1
170
     0
176
     1
171
     0
176
     1
290
     0
176
     1
 93
        1
176
     1
 44
0.0
176
     1
173
     0
176
     1
  0
VISUALSTYLE
  5
36
102
{ACAD_REACTORS
330
2A
102
}
102
{ACAD_XDICTIONARY
360
3D4
102
}
330
2A
100
AcDbVisualStyle
  2
Brighten
 70
    12
177
     2
291
     1
 71
     2
176
     1
 72
     2
176
     1
 73
     0
176
     1
 90
        0
176
     1
 40
0.6
176
     1
 41
30.0
176
     1
 62
     5
 63
     7
421
 16777215
176
     1
 74
     1
176
     1
 91
        4
176
     1
 64
     7
176
     1
 65
   257
176
     1
 75
     1
176
     1
175
     1
176
     1
 42
1.0
176
     1
 92
        8
176
     1
 66
     7
176
     1
 43
1.0
176
     1
 76
     1
176
     1
 77
     6
176
     1
 78
     2
176
     1
 67
     7
176
     1
 79
     5
176
     1
170
     0
176
     1
171
     0
176
     1
290
     0
176
     1
 93
        1
176
     1
 44
50.0
176
     1
173
     0
176
     1
  0
VISUALSTYLE
  5
3A
102
{ACAD_REACTORS
330
2A
102
}
102
{ACAD_XDICTIONARY
360
3DC
102
}
330
2A
100
AcDbVisualStyle
  2
ColorChange
 70
    16
177
     2
291
     1
 71
     2
176
     1
 72
     2
176
     1
 73
     3
176
     1
 90
        0
176
     1
 40
0.6
176
     1
 41
30.0
176
     1
 62
     5
 63
     8
421
  8421504
176
     1
 74
     1
176
     1
 91
        4
176
     1
 64
     7
176
     1
 65
   257
176
     1
 75
     1
176
     1
175
     1
176
     1
 42
1.0
176
     1
 92
        8
176
     1
 66
     8
424
  8421504
176
     1
 43
1.0
176
     1
 76
     1
176
     1
 77
     6
176
     1
 78
     2
176
     1
 67
     7
176
     1
 79
     5
176
     1
170
     0
176
     1
171
     0
176
     1
290
     0
176
     1
 93
        1
176
     1
 44
0.0
176
     1
173
     0
176
     1
  0
VISUALSTYLE
  5
34
102
{ACAD_REACTORS
330
2A
102
}
102
{ACAD_XDICTIONARY
360
3D0
102
}
330
2A
100
AcDbVisualStyle
  2
Conceptual
 70
     9
177
     2
291
     0
 71
     3
176
     1
 72
     2
176
     1
 73
     0
176
     1
 90
        0
176
     1
 40
0.6
176
     1
 41
30.0
176
     1
 62
     5
 63
     7
421
 16777215
176
     1
 74
     2
176
     1
 91
        2
176
     1
 64
     7
176
     1
 65
   257
176
     1
 75
     1
176
     1
175
     1
176
     1
 42
179.0
176
     1
 92
        8
176
     1
 66
     7
176
     1
 43
1.0
176
     1
 76
     1
176
     1
 77
     6
176
     1
 78
     2
176
     1
 67
     7
176
     1
 79
     3
176
     1
170
     0
176
     1
171
     0
176
     1
290
     0
176
     1
 93
        1
176
     1
 44
0.0
176
     1
173
     0
176
     1
  0
VISUALSTYLE
  5
35
102
{ACAD_REACTORS
330
2A
102
}
102
{ACAD_XDICTIONARY
360
3D2
102
}
330
2A
100
AcDbVisualStyle
  2
Dim
 70
    11
177
     2
291
     1
 71
     2
176
     1
 72
     2
176
     1
 73
     0
176
     1
 90
        0
176
     1
 40
0.6
176
     1
 41
30.0
176
     1
 62
     5
 63
     7
421
 16777215
176
     1
 74
     1
176
     1
 91
        4
176
     1
 64
     7
176
     1
 65
   257
176
     1
 75
     1
176
     1
175
     1
176
     1
 42
1.0
176
     1
 92
        8
176
     1
 66
     7
176
     1
 43
1.0
176
     1
 76
     1
176
     1
 77
     6
176
     1
 78
     2
176
     1
 67
     7
176
     1
 79
     5
176
     1
170
     0
176
     1
171
     0
176
     1
290
     0
176
     1
 93
        1
176
     1
 44
-50.0
176
     1
173
     0
176
     1
  0
VISUALSTYLE
  5
3D
102
{ACAD_REACTORS
330
2A
102
}
102
{ACAD_XDICTIONARY
360
3E2
102
}
330
2A
100
AcDbVisualStyle
  2
EdgeColorOff
 70
    22
177
     2
291
     1
 71
     2
176
     0
 72
     2
176
     0
 73
     0
176
     0
 90
        0
176
     0
 40
0.6
176
     0
 41
30.0
176
     0
 62
     5
 63
     7
421
 16777215
176
     0
 74
     1
176
     0
 91
        4
176
     0
 64
     7
176
     0
 65
   257
176
     0
 75
     1
176
     0
175
     1
176
     0
 42
1.0
176
     0
 92
        8
176
     2
 66
     7
176
     0
 43
1.0
176
     0
 76
     1
176
     0
 77
     6
176
     0
 78
     2
176
     0
 67
     7
176
     0
 79
     5
176
     0
170
     0
176
     0
171
     0
176
     0
290
     0
176
     0
 93
        1
176
     0
 44
0.0
176
     0
173
     0
176
     0
  0
VISUALSTYLE
  5
39
102
{ACAD_REACTORS
330
2A
102
}
102
{ACAD_XDICTIONARY
360
3DA
102
}
330
2A
100
AcDbVisualStyle
  2
Facepattern
 70
    15
177
     2
291
     1
 71
     2
176
     1
 72
     2
176
     1
 73
     0
176
     1
 90
        0
176
     1
 40
0.6
176
     1
 41
30.0
176
     1
 62
     5
 63
     7
421
 16777215
176
     1
 74
     1
176
     1
 91
        4
176
     1
 64
     7
176
     1
 65
   257
176
     1
 75
     1
176
     1
175
     1
176
     1
 42
1.0
176
     1
 92
        8
176
     1
 66
     7
176
     1
 43
1.0
176
     1
 76
     1
176
     1
 77
     6
176
     1
 78
     2
176
     1
 67
     7
176
     1
 79
     5
176
     1
170
     0
176
     1
171
     0
176
     1
290
     0
176
     1
 93
        1
176
     1
 44
0.0
176
     1
173
     0
176
     1
  0
VISUALSTYLE
  5
2B
102
{ACAD_REACTORS
330
2A
102
}
102
{ACAD_XDICTIONARY
360
3BE
102
}
330
2A
100
AcDbVisualStyle
  2
Flat
 70
     0
177
     2
291
     1
 71
     2
176
     1
 72
     1
176
     1
 73
     1
176
     1
 90
        2
176
     1
 40
0.6
176
     1
 41
30.0
176
     1
 62
     5
 63
     7
421
 16777215
176
     1
 74
     0
176
     1
 91
        0
176
     1
 64
     7
176
     1
 65
   257
176
     1
 75
     1
176
     1
175
     1
176
     1
 42
1.0
176
     1
 92
        8
176
     1
 66
     7
176
     1
 43
1.0
176
     1
 76
     1
176
     1
 77
     6
176
     1
 78
     2
176
     1
 67
     7
176
     1
 79
     5
176
     1
170
     0
176
     1
171
     0
176
     1
290
     0
176
     1
 93
       13
176
     1
 44
0.0
176
     1
173
     0
176
     1
  0
VISUALSTYLE
  5
2C
102
{ACAD_REACTORS
330
2A
102
}
102
{ACAD_XDICTIONARY
360
3C0
102
}
330
2A
100
AcDbVisualStyle
  2
FlatWithEdges
 70
     1
177
     2
291
     1
 71
     2
176
     1
 72
     1
176
     1
 73
     1
176
     1
 90
        2
176
     1
 40
0.6
176
     1
 41
30.0
176
     1
 62
     5
 63
     7
421
 16777215
176
     1
 74
     1
176
     1
 91
        0
176
     1
 64
     7
176
     1
 65
   257
176
     1
 75
     1
176
     1
175
     1
176
     1
 42
1.0
176
     1
 92
        0
176
     1
 66
   257
176
     1
 43
1.0
176
     1
 76
     1
176
     1
 77
     6
176
     1
 78
     2
176
     1
 67
     7
176
     1
 79
     5
176
     1
170
     0
176
     1
171
     0
176
     1
290
     0
176
     1
 93
       13
176
     1
 44
0.0
176
     1
173
     0
176
     1
  0
VISUALSTYLE
  5
2D
102
{ACAD_REACTORS
330
2A
102
}
102
{ACAD_XDICTIONARY
360
3C2
102
}
330
2A
100
AcDbVisualStyle
  2
Gouraud
 70
     2
177
     2
291
     1
 71
     2
176
     1
 72
     2
176
     1
 73
     1
176
     1
 90
        2
176
     1
 40
0.6
176
     1
 41
30.0
176
     1
 62
     5
 63
     7
421
 16777215
176
     1
 74
     0
176
     1
 91
        0
176
     1
 64
     7
176
     1
 65
   257
176
     1
 75
     1
176
     1
175
     1
176
     1
 42
1.0
176
     1
 92
        0
176
     1
 66
     7
176
     1
 43
1.0
176
     1
 76
     1
176
     1
 77
     6
176
     1
 78
     2
176
     1
 67
     7
176
     1
 79
     5
176
     1
170
     0
176
     1
171
     0
176
     1
290
     0
176
     1
 93
       13
176
     1
 44
0.0
176
     1
173
     0
176
     1
  0
VISUALSTYLE
  5
2E
102
{ACAD_REACTORS
330
2A
102
}
102
{ACAD_XDICTIONARY
360
3C4
102
}
330
2A
100
AcDbVisualStyle
  2
GouraudWithEdges
 70
     3
177
     2
291
     1
 71
     2
176
     1
 72
     2
176
     1
 73
     1
176
     1
 90
        2
176
     1
 40
0.6
176
     1
 41
30.0
176
     1
 62
     5
 63
     7
421
 16777215
176
     1
 74
     1
176
     1
 91
        0
176
     1
 64
     7
176
     1
 65
   257
176
     1
 75
     1
176
     1
175
     1
176
     1
 42
1.0
176
     1
 92
        0
176
     1
 66
   257
176
     1
 43
1.0
176
     1
 76
     1
176
     1
 77
     6
176
     1
 78
     2
176
     1
 67
     7
176
     1
 79
     5
176
     1
170
     0
176
     1
171
     0
176
     1
290
     0
176
     1
 93
       13
176
     1
 44
0.0
176
     1
173
     0
176
     1
  0
VISUALSTYLE
  5
31
102
{ACAD_REACTORS
330
2A
102
}
102
{ACAD_XDICTIONARY
360
3CA
102
}
330
2A
100
AcDbVisualStyle
  2
Hidden
 70
     6
177
     2
291
     0
 71
     1
176
     1
 72
     2
176
     1
 73
     2
176
     1
 90
        0
176
     1
 40
0.6
176
     1
 41
30.0
176
     1
 62
     5
 63
     7
421
 16777215
176
     1
 74
     2
176
     1
 91
        2
176
     1
 64
     7
176
     1
 65
   257
176
     1
 75
     2
176
     1
175
     1
176
     1
 42
40.0
176
     1
 92
        0
176
     1
 66
   257
176
     1
 43
1.0
176
     1
 76
     1
176
     1
 77
     6
176
     1
 78
     2
176
     1
 67
     7
176
     1
 79
     3
176
     1
170
     0
176
     1
171
     0
176
     1
290
     0
176
     1
 93
        1
176
     1
 44
0.0
176
     1
173
     0
176
     1
  0
VISUALSTYLE
  5
3B
102
{ACAD_REACTORS
330
2A
102
}
102
{ACAD_XDICTIONARY
360
3DE
102
}
330
2A
100
AcDbVisualStyle
  2
JitterOff
 70
    20
177
     2
291
     1
 71
     2
176
     0
 72
     2
176
     0
 73
     0
176
     0
 90
        0
176
     0
 40
0.6
176
     0
 41
30.0
176
     0
 62
     5
 63
     7
421
 16777215
176
     0
 74
     1
176
     0
 91
        4
176
     0
 64
     7
176
     0
 65
   257
176
     0
 75
     1
176
     0
175
     1
176
     0
 42
1.0
176
     0
 92
       10
176
     2
 66
     7
176
     0
 43
1.0
176
     0
 76
     1
176
     0
 77
     6
176
     0
 78
     2
176
     0
 67
     7
176
     0
 79
     5
176
     0
170
     0
176
     0
171
     0
176
     0
290
     0
176
     0
 93
        1
176
     0
 44
0.0
176
     0
173
     0
176
     0
  0
VISUALSTYLE
  5
38
102
{ACAD_REACTORS
330
2A
102
}
102
{ACAD_XDICTIONARY
360
3D8
102
}
330
2A
100
AcDbVisualStyle
  2
Linepattern
 70
    14
177
     2
291
     1
 71
     2
176
     1
 72
     2
176
     1
 73
     0
176
     1
 90
        0
176
     1
 40
0.6
176
     1
 41
30.0
176
     1
 62
     5
 63
     7
421
 16777215
176
     1
 74
     1
176
     1
 91
        4
176
     1
 64
     7
176
     1
 65
   257
176
     1
 75
     7
176
     1
175
     7
176
     1
 42
1.0
176
     1
 92
        8
176
     1
 66
     7
176
     1
 43
1.0
176
     1
 76
     1
176
     1
 77
     6
176
     1
 78
     2
176
     1
 67
     7
176
     1
 79
     5
176
     1
170
     0
176
     1
171
     0
176
     1
290
     0
176
     1
 93
        1
176
     1
 44
0.0
176
     1
173
     0
176
     1
  0
VISUALSTYLE
  5
3C
102
{ACAD_REACTORS
330
2A
102
}
102
{ACAD_XDICTIONARY
360
3E0
102
}
330
2A
100
AcDbVisualStyle
  2
OverhangOff
 70
    21
177
     2
291
     1
 71
     2
176
     0
 72
     2
176
     0
 73
     0
176
     0
 90
        0
176
     0
 40
0.6
176
     0
 41
30.0
176
     0
 62
     5
 63
     7
421
 16777215
176
     0
 74
     1
176
     0
 91
        4
176
     0
 64
     7
176
     0
 65
   257
176
     0
 75
     1
176
     0
175
     1
176
     0
 42
1.0
176
     0
 92
        9
176
     2
 66
     7
176
     0
 43
1.0
176
     0
 76
     1
176
     0
 77
     6
176
     0
 78
     2
176
     0
 67
     7
176
     0
 79
     5
176
     0
170
     0
176
     0
171
     0
176
     0
290
     0
176
     0
 93
        1
176
     0
 44
0.0
176
     0
173
     0
176
     0
  0
VISUALSTYLE
  5
33
102
{ACAD_REACTORS
330
2A
102
}
102
{ACAD_XDICTIONARY
360
3CE
102
}
330
2A
100
AcDbVisualStyle
  2
Realistic
 70
     8
177
     2
291
     0
 71
     2
176
     1
 72
     3
176
     1
 73
     0
176
     1
 90
        2
176
     1
 40
0.6
176
     1
 41
30.0
176
     1
 62
     5
 63
     7
421
 16777215
176
     1
 74
     0
176
     1
 91
        0
176
     1
 64
     7
176
     1
 65
   257
176
     1
 75
     1
176
     1
175
     1
176
     1
 42
1.0
176
     1
 92
        8
176
     1
 66
   257
176
     1
 43
1.0
176
     1
 76
     1
176
     1
 77
     6
176
     1
 78
     2
176
     1
 67
     7
176
     1
 79
     3
176
     1
170
     0
176
     1
171
     0
176
     1
290
     0
176
     1
 93
       13
176
     1
 44
0.0
176
     1
173
     0
176
     1
  0
VISUALSTYLE
  5
42
102
{ACAD_REACTORS
330
2A
102
}
102
{ACAD_XDICTIONARY
360
3EC
102
}
330
2A
100
AcDbVisualStyle
  2
Shaded
 70
    27
177
     2
291
     0
 71
     2
176
     1
 72
     2
176
     1
 73
     1
176
     1
 90
        2
176
     1
 40
0.6
176
     1
 41
30.0
176
     1
 62
     5
 63
     7
421
 16777215
176
     1
 74
     0
176
     1
 91
        4
176
     1
 64
     7
176
     1
 65
   257
176
     1
 75
     1
176
     1
175
     1
176
     1
 42
1.0
176
     1
 92
        8
176
     1
 66
   257
176
     1
 43
1.0
176
     1
 76
     1
176
     1
 77
     6
176
     1
 78
     2
176
     1
 67
     8
425
  7895160
176
     1
 79
     3
176
     1
170
     0
176
     1
171
     0
176
     1
290
     0
176
     1
 93
        5
176
     1
 44
0.0
176
     1
173
     0
176
     1
  0
VISUALSTYLE
  5
41
102
{ACAD_REACTORS
330
2A
102
}
102
{ACAD_XDICTIONARY
360
3EA
102
}
330
2A
100
AcDbVisualStyle
  2
Shaded with edges
 70
    26
177
     2
291
     0
 71
     2
176
     1
 72
     2
176
     1
 73
     1
176
     1
 90
        2
176
     1
 40
0.6
176
     1
 41
30.0
176
     1
 62
     5
 63
     7
421
 16777215
176
     1
 74
     1
176
     1
 91
       10
176
     1
 64
     7
176
     1
 65
   257
176
     1
 75
     2
176
     1
175
     1
176
     1
 42
1.0
176
     1
 92
        8
176
     1
 66
   257
176
     1
 43
1.0
176
     1
 76
     1
176
     1
 77
     6
176
     1
 78
     2
176
     1
 67
     7
176
     1
 79
     3
176
     1
170
     0
176
     1
171
     0
176
     1
290
     0
176
     1
 93
        5
176
     1
 44
0.0
176
     1
173
     0
176
     1
  0
VISUALSTYLE
  5
3E
102
{ACAD_REACTORS
330
2A
102
}
102
{ACAD_XDICTIONARY
360
3E4
102
}
330
2A
100
AcDbVisualStyle
  2
Shades of Gray
 70
    23
177
     2
291
     0
 71
     2
176
     1
 72
     2
176
     1
 73
     3
176
     1
 90
        0
176
     1
 40
0.6
176
     1
 41
30.0
176
     1
 62
     5
 63
     7
421
 16777215
176
     1
 74
     2
176
     1
 91
        2
176
     1
 64
     7
176
     1
 65
     7
176
     1
 75
     1
176
     1
175
     1
176
     1
 42
40.0
176
     1
 92
        8
176
     1
 66
     7
176
     1
 43
1.0
176
     1
 76
     1
176
     1
 77
     6
176
     1
 78
     2
176
     1
 67
     7
176
     1
 79
     3
176
     1
170
     0
176
     1
171
     0
176
     1
290
     0
176
     1
 93
        1
176
     1
 44
0.0
176
     1
173
     0
176
     1
  0
VISUALSTYLE
  5
3F
102
{ACAD_REACTORS
330
2A
102
}
102
{ACAD_XDICTIONARY
360
3E6
102
}
330
2A
100
AcDbVisualStyle
  2
Sketchy
 70
    24
177
     2
291
     0
 71
     1
176
     1
 72
     2
176
     1
 73
     2
176
     1
 90
        0
176
     1
 40
0.6
176
     1
 41
30.0
176
     1
 62
     5
 63
     7
421
 16777215
176
     1
 74
     2
176
     1
 91
        2
176
     1
 64
     7
176
     1
 65
     7
176
     1
 75
     1
176
     1
175
     1
176
     1
 42
40.0
176
     1
 92
       11
176
     1
 66
     7
176
     1
 43
1.0
176
     1
 76
     1
176
     1
 77
     6
176
     1
 78
     2
176
     1
 67
     7
176
     1
 79
     6
176
     1
170
     0
176
     1
171
     0
176
     1
290
     0
176
     1
 93
        1
176
     1
 44
0.0
176
     1
173
     0
176
     1
  0
VISUALSTYLE
  5
37
102
{ACAD_REACTORS
330
2A
102
}
102
{ACAD_XDICTIONARY
360
3D6
102
}
330
2A
100
AcDbVisualStyle
  2
Thicken
 70
    13
177
     2
291
     1
 71
     2
176
     1
 72
     2
176
     1
 73
     0
176
     1
 90
        0
176
     1
 40
0.6
176
     1
 41
30.0
176
     1
 62
     5
 63
     7
421
 16777215
176
     1
 74
     1
176
     1
 91
        4
176
     1
 64
     7
176
     1
 65
   257
176
     1
 75
     1
176
     1
175
     1
176
     1
 42
1.0
176
     1
 92
       12
176
     1
 66
     7
176
     1
 43
1.0
176
     1
 76
     1
176
     1
 77
     6
176
     1
 78
     2
176
     1
 67
     7
176
     1
 79
     5
176
     1
170
     0
176
     1
171
     0
176
     1
290
     0
176
     1
 93
        1
176
     1
 44
0.0
176
     1
173
     0
176
     1
  0
VISUALSTYLE
  5
30
102
{ACAD_REACTORS
330
2A
102
}
102
{ACAD_XDICTIONARY
360
3C8
102
}
330
2A
100
AcDbVisualStyle
  2
Wireframe
 70
     5
177
     2
291
     0
 71
     0
176
     1
 72
     2
176
     1
 73
     0
176
     1
 90
        0
176
     1
 40
0.6
176
     1
 41
30.0
176
     1
 62
     5
 63
     7
421
 16777215
176
     1
 74
     1
176
     1
 91
        4
176
     1
 64
     7
176
     1
 65
   257
176
     1
 75
     1
176
     1
175
     1
176
     1
 42
1.0
176
     1
 92
        0
176
     1
 66
   257
176
     1
 43
1.0
176
     1
 76
     1
176
     1
 77
     6
176
     1
 78
     2
176
     1
 67
     7
176
     1
 79
     3
176
     1
170
     0
176
     1
171
     0
176
     1
290
     0
176
     1
 93
        1
176
     1
 44
0.0
176
     1
173
     0
176
     1
  0
VISUALSTYLE
  5
40
102
{ACAD_REACTORS
330
2A
102
}
102
{ACAD_XDICTIONARY
360
3E8
102
}
330
2A
100
AcDbVisualStyle
  2
X-Ray
 70
    25
177
     2
291
     0
 71
     2
176
     1
 72
     2
176
     1
 73
     1
176
     1
 90
        1
176
     1
 40
0.5
176
     1
 41
30.0
176
     1
 62
     5
 63
     7
421
 16777215
176
     1
 74
     1
176
     1
 91
        0
176
     1
 64
     7
176
     1
 65
   257
176
     1
 75
     1
176
     1
175
     1
176
     1
 42
1.0
176
     1
 92
        8
176
     1
 66
     7
176
     1
 43
1.0
176
     1
 76
     1
176
     1
 77
     6
176
     1
 78
     2
176
     1
 67
     7
176
     1
 79
     3
176
     1
170
     0
176
     1
171
     0
176
     1
290
     0
176
     1
 93
       13
176
     1
 44
0.0
176
     1
173
     0
176
     1
  0
DICTIONARYVAR
  5
3BD
102
{ACAD_REACTORS
330
3BC
102
}
330
3BC
100
DictionaryVariables
280
     0
  1
1:1
  0
DICTIONARYVAR
  5
3F2
102
{ACAD_REACTORS
330
3BC
102
}
330
3BC
100
DictionaryVariables
280
     0
  1
Standard
  0
DICTIONARYVAR
  5
3F1
102
{ACAD_REACTORS
330
3BC
102
}
330
3BC
100
DictionaryVariables
280
     0
  1
Standard
  0
DICTIONARY
  5
3EE
330
6A
100
AcDbDictionary
280
     1
281
     1
  3
ACAD_ROUNDTRIP_2008_TABLESTYLE_CELLSTYLEMAP
360
3EF
  0
DICTIONARY
  5
3C6
330
2F
100
AcDbDictionary
280
     1
281
     1
  3
ACAD_XREC_ROUNDTRIP
360
3C7
  0
DICTIONARY
  5
3CC
330
32
100
AcDbDictionary
280
     1
281
     1
  3
ACAD_XREC_ROUNDTRIP
360
3CD
  0
DICTIONARY
  5
3D4
330
36
100
AcDbDictionary
280
     1
281
     1
  3
ACAD_XREC_ROUNDTRIP
360
3D5
  0
DICTIONARY
  5
3DC
330
3A
100
AcDbDictionary
280
     1
281
     1
  3
ACAD_XREC_ROUNDTRIP
360
3DD
  0
DICTIONARY
  5
3D0
330
34
100
AcDbDictionary
280
     1
281
     1
  3
ACAD_XREC_ROUNDTRIP
360
3D1
  0
DICTIONARY
  5
3D2
330
35
100
AcDbDictionary
280
     1
281
     1
  3
ACAD_XREC_ROUNDTRIP
360
3D3
  0
DICTIONARY
  5
3E2
330
3D
100
AcDbDictionary
280
     1
281
     1
  3
ACAD_XREC_ROUNDTRIP
360
3E3
  0
DICTIONARY
  5
3DA
330
39
100
AcDbDictionary
280
     1
281
     1
  3
ACAD_XREC_ROUNDTRIP
360
3DB
  0
DICTIONARY
  5
3BE
330
2B
100
AcDbDictionary
280
     1
281
     1
  3
ACAD_XREC_ROUNDTRIP
360
3BF
  0
DICTIONARY
  5
3C0
330
2C
100
AcDbDictionary
280
     1
281
     1
  3
ACAD_XREC_ROUNDTRIP
360
3C1
  0
DICTIONARY
  5
3C2
330
2D
100
AcDbDictionary
280
     1
281
     1
  3
ACAD_XREC_ROUNDTRIP
360
3C3
  0
DICTIONARY
  5
3C4
330
2E
100
AcDbDictionary
280
     1
281
     1
  3
ACAD_XREC_ROUNDTRIP
360
3C5
  0
DICTIONARY
  5
3CA
330
31
100
AcDbDictionary
280
     1
281
     1
  3
ACAD_XREC_ROUNDTRIP
360
3CB
  0
DICTIONARY
  5
3DE
330
3B
100
AcDbDictionary
280
     1
281
     1
  3
ACAD_XREC_ROUNDTRIP
360
3DF
  0
DICTIONARY
  5
3D8
330
38
100
AcDbDictionary
280
     1
281
     1
  3
ACAD_XREC_ROUNDTRIP
360
3D9
  0
DICTIONARY
  5
3E0
330
3C
100
AcDbDictionary
280
     1
281
     1
  3
ACAD_XREC_ROUNDTRIP
360
3E1
  0
DICTIONARY
  5
3CE
330
33
100
AcDbDictionary
280
     1
281
     1
  3
ACAD_XREC_ROUNDTRIP
360
3CF
  0
DICTIONARY
  5
3EC
330
42
100
AcDbDictionary
280
     1
281
     1
  3
ACAD_XREC_ROUNDTRIP
360
3ED
  0
DICTIONARY
  5
3EA
330
41
100
AcDbDictionary
280
     1
281
     1
  3
ACAD_XREC_ROUNDTRIP
360
3EB
  0
DICTIONARY
  5
3E4
330
3E
100
AcDbDictionary
280
     1
281
     1
  3
ACAD_XREC_ROUNDTRIP
360
3E5
  0
DICTIONARY
  5
3E6
330
3F
100
AcDbDictionary
280
     1
281
     1
  3
ACAD_XREC_ROUNDTRIP
360
3E7
  0
DICTIONARY
  5
3D6
330
37
100
AcDbDictionary
280
     1
281
     1
  3
ACAD_XREC_ROUNDTRIP
360
3D7
  0
DICTIONARY
  5
3C8
330
30
100
AcDbDictionary
280
     1
281
     1
  3
ACAD_XREC_ROUNDTRIP
360
3C9
  0
DICTIONARY
  5
3E8
330
40
100
AcDbDictionary
280
     1
281
     1
  3
ACAD_XREC_ROUNDTRIP
360
3E9
  0
CELLSTYLEMAP
  5
3EF
102
{ACAD_REACTORS
330
3EE
102
}
330
3EE
100
AcDbCellStyleMap
 90
        3
300
CELLSTYLE
  1
TABLEFORMAT_BEGIN
 90
        5
170
     1
 91
        0
 92
    32768
 62
   257
 93
        1
300
CONTENTFORMAT
  1
CONTENTFORMAT_BEGIN
 90
        0
 91
        0
 92
        4
 93
        0
300

 40
0.0
140
1.0
 94
        5
 62
     0
340
11
144
6.0
309
CONTENTFORMAT_END
171
     1
301
MARGIN
  1
CELLMARGIN_BEGIN
 40
1.5
 40
1.5
 40
1.5
 40
1.5
 40
1.5
 40
1.5
309
CELLMARGIN_END
 94
        6
 95
        1
302
GRIDFORMAT
  1
GRIDFORMAT_BEGIN
 90
        0
 91
        1
 62
     0
 92
       -2
340
14
 93
        0
 40
0.045
309
GRIDFORMAT_END
 95
        2
302
GRIDFORMAT
  1
GRIDFORMAT_BEGIN
 90
        0
 91
        1
 62
     0
 92
       -2
340
14
 93
        0
 40
0.045
309
GRIDFORMAT_END
 95
        4
302
GRIDFORMAT
  1
GRIDFORMAT_BEGIN
 90
        0
 91
        1
 62
     0
 92
       -2
340
14
 93
        0
 40
0.045
309
GRIDFORMAT_END
 95
        8
302
GRIDFORMAT
  1
GRIDFORMAT_BEGIN
 90
        0
 91
        1
 62
     0
 92
       -2
340
14
 93
        0
 40
0.045
309
GRIDFORMAT_END
 95
       16
302
GRIDFORMAT
  1
GRIDFORMAT_BEGIN
 90
        0
 91
        1
 62
     0
 92
       -2
340
14
 93
        0
 40
0.045
309
GRIDFORMAT_END
 95
       32
302
GRIDFORMAT
  1
GRIDFORMAT_BEGIN
 90
        0
 91
        1
 62
     0
 92
       -2
340
14
 93
        0
 40
0.045
309
GRIDFORMAT_END
309
TABLEFORMAT_END
  1
CELLSTYLE_BEGIN
 90
        1
 91
        1
300
_TITLE
309
CELLSTYLE_END
300
CELLSTYLE
  1
TABLEFORMAT_BEGIN
 90
        5
170
     1
 91
        0
 92
        0
 62
   257
 93
        1
300
CONTENTFORMAT
  1
CONTENTFORMAT_BEGIN
 90
        0
 91
        0
 92
        4
 93
        0
300

 40
0.0
140
1.0
 94
        5
 62
     0
340
11
144
4.5
309
CONTENTFORMAT_END
171
     1
301
MARGIN
  1
CELLMARGIN_BEGIN
 40
1.5
 40
1.5
 40
1.5
 40
1.5
 40
1.5
 40
1.5
309
CELLMARGIN_END
 94
        6
 95
        1
302
GRIDFORMAT
  1
GRIDFORMAT_BEGIN
 90
        0
 91
        1
 62
     0
 92
       -2
340
14
 93
        0
 40
0.045
309
GRIDFORMAT_END
 95
        2
302
GRIDFORMAT
  1
GRIDFORMAT_BEGIN
 90
        0
 91
        1
 62
     0
 92
       -2
340
14
 93
        0
 40
0.045
309
GRIDFORMAT_END
 95
        4
302
GRIDFORMAT
  1
GRIDFORMAT_BEGIN
 90
        0
 91
        1
 62
     0
 92
       -2
340
14
 93
        0
 40
0.045
309
GRIDFORMAT_END
 95
        8
302
GRIDFORMAT
  1
GRIDFORMAT_BEGIN
 90
        0
 91
        1
 62
     0
 92
       -2
340
14
 93
        0
 40
0.045
309
GRIDFORMAT_END
 95
       16
302
GRIDFORMAT
  1
GRIDFORMAT_BEGIN
 90
        0
 91
        1
 62
     0
 92
       -2
340
14
 93
        0
 40
0.045
309
GRIDFORMAT_END
 95
       32
302
GRIDFORMAT
  1
GRIDFORMAT_BEGIN
 90
        0
 91
        1
 62
     0
 92
       -2
340
14
 93
        0
 40
0.045
309
GRIDFORMAT_END
309
TABLEFORMAT_END
  1
CELLSTYLE_BEGIN
 90
        2
 91
        1
300
_HEADER
309
CELLSTYLE_END
300
CELLSTYLE
  1
TABLEFORMAT_BEGIN
 90
        5
170
     1
 91
        0
 92
        0
 62
   257
 93
        1
300
CONTENTFORMAT
  1
CONTENTFORMAT_BEGIN
 90
        0
 91
        0
 92
        4
 93
        0
300

 40
0.0
140
1.0
 94
        2
 62
     0
340
11
144
4.5
309
CONTENTFORMAT_END
171
     1
301
MARGIN
  1
CELLMARGIN_BEGIN
 40
1.5
 40
1.5
 40
1.5
 40
1.5
 40
1.5
 40
1.5
309
CELLMARGIN_END
 94
        6
 95
        1
302
GRIDFORMAT
  1
GRIDFORMAT_BEGIN
 90
        0
 91
        1
 62
     0
 92
       -2
340
14
 93
        0
 40
0.045
309
GRIDFORMAT_END
 95
        2
302
GRIDFORMAT
  1
GRIDFORMAT_BEGIN
 90
        0
 91
        1
 62
     0
 92
       -2
340
14
 93
        0
 40
0.045
309
GRIDFORMAT_END
 95
        4
302
GRIDFORMAT
  1
GRIDFORMAT_BEGIN
 90
        0
 91
        1
 62
     0
 92
       -2
340
14
 93
        0
 40
0.045
309
GRIDFORMAT_END
 95
        8
302
GRIDFORMAT
  1
GRIDFORMAT_BEGIN
 90
        0
 91
        1
 62
     0
 92
       -2
340
14
 93
        0
 40
0.045
309
GRIDFORMAT_END
 95
       16
302
GRIDFORMAT
  1
GRIDFORMAT_BEGIN
 90
        0
 91
        1
 62
     0
 92
       -2
340
14
 93
        0
 40
0.045
309
GRIDFORMAT_END
 95
       32
302
GRIDFORMAT
  1
GRIDFORMAT_BEGIN
 90
        0
 91
        1
 62
     0
 92
       -2
340
14
 93
        0
 40
0.045
309
GRIDFORMAT_END
309
TABLEFORMAT_END
  1
CELLSTYLE_BEGIN
 90
        3
 91
        2
300
_DATA
309
CELLSTYLE_END
  0
XRECORD
  5
3C7
102
{ACAD_REACTORS
330
3C6
102
}
330
3C6
100
AcDbXrecord
280
     1
102
RTVSPost2010Prop28
280
     1
102
RTVSPost2010PropOp28
 70
     1
102
RTVSPost2010Prop29
280
     1
102
RTVSPost2010PropOp29
 70
     1
102
RTVSPost2010Prop30
280
     0
102
RTVSPost2010PropOp30
 70
     1
102
RTVSPost2010Prop31
280
     0
102
RTVSPost2010PropOp31
 70
     1
102
RTVSPost2010Prop32
280
     0
102
RTVSPost2010PropOp32
 70
     1
102
RTVSPost2010Prop33
280
     0
102
RTVSPost2010PropOp33
 70
     1
102
RTVSPost2010Prop34
280
     0
102
RTVSPost2010PropOp34
 70
     1
102
RTVSPost2010Prop35
280
     0
102
RTVSPost2010PropOp35
 70
     1
102
RTVSPost2010Prop36
280
     0
102
RTVSPost2010PropOp36
 70
     1
102
RTVSPost2010Prop37
 90
       50
102
RTVSPost2010PropOp37
 70
     1
102
RTVSPost2010Prop38
140
0.0
102
RTVSPost2010PropOp38
 70
     1
102
RTVSPost2010Prop39
140
1.0
102
RTVSPost2010PropOp39
 70
     1
102
RTVSPost2010Prop40
 90
        0
102
RTVSPost2010PropOp40
 70
     1
102
RTVSPost2010Prop41ColorIndex
 90
       18
102
RTVSPost2010Prop41ColorRGB
 90
        0
102
RTVSPost2010PropOp41
 70
     1
102
RTVSPost2010Prop42
 90
       50
102
RTVSPost2010PropOp42
 70
     1
102
RTVSPost2010Prop43
 90
        3
102
RTVSPost2010PropOp43
 70
     1
102
RTVSPost2010Prop44ColorIndex
 90
        5
102
RTVSPost2010Prop44ColorRGB
 90
      255
102
RTVSPost2010PropOp44
 70
     1
102
RTVSPost2010Prop45
280
     0
102
RTVSPost2010PropOp45
 70
     1
102
RTVSPost2010Prop46
 90
       50
102
RTVSPost2010PropOp46
 70
     1
102
RTVSPost2010Prop47
 90
       50
102
RTVSPost2010PropOp47
 70
     1
102
RTVSPost2010Prop48
 90
       50
102
RTVSPost2010PropOp48
 70
     1
102
RTVSPost2010Prop49
280
     0
102
RTVSPost2010PropOp49
 70
     1
102
RTVSPost2010Prop50
 90
       50
102
RTVSPost2010PropOp50
 70
     1
102
RTVSPost2010Prop51ColorIndex
 90
      256
102
RTVSPost2010Prop51ColorRGB
 90
-16777216
102
RTVSPost2010PropOp51
 70
     0
102
RTVSPost2010Prop52
140
1.0
102
RTVSPost2010PropOp52
 70
     0
102
RTVSPost2010Prop53
 90
        2
102
RTVSPost2010PropOp53
 70
     1
102
RTVSPost2010Prop54
  1
strokes_ogs.tif
102
RTVSPost2010PropOp54
 70
     1
102
RTVSPost2010Prop55
280
     0
102
RTVSPost2010PropOp55
 70
     1
102
RTVSPost2010Prop56
140
1.0
102
RTVSPost2010PropOp56
 70
     1
102
RTVSPost2010Prop57
140
1.0
102
RTVSPost2010PropOp57
 70
     1
  0
XRECORD
  5
3CD
102
{ACAD_REACTORS
330
3CC
102
}
330
3CC
100
AcDbXrecord
280
     1
102
RTVSPost2010Prop28
280
     0
102
RTVSPost2010PropOp28
 70
     1
102
RTVSPost2010Prop29
280
     1
102
RTVSPost2010PropOp29
 70
     1
102
RTVSPost2010Prop30
280
     1
102
RTVSPost2010PropOp30
 70
     1
102
RTVSPost2010Prop31
280
     0
102
RTVSPost2010PropOp31
 70
     1
102
RTVSPost2010Prop32
280
     0
102
RTVSPost2010PropOp32
 70
     1
102
RTVSPost2010Prop33
280
     0
102
RTVSPost2010PropOp33
 70
     1
102
RTVSPost2010Prop34
280
     0
102
RTVSPost2010PropOp34
 70
     1
102
RTVSPost2010Prop35
280
     0
102
RTVSPost2010PropOp35
 70
     1
102
RTVSPost2010Prop36
280
     0
102
RTVSPost2010PropOp36
 70
     1
102
RTVSPost2010Prop37
 90
       50
102
RTVSPost2010PropOp37
 70
     1
102
RTVSPost2010Prop38
140
0.0
102
RTVSPost2010PropOp38
 70
     1
102
RTVSPost2010Prop39
140
1.0
102
RTVSPost2010PropOp39
 70
     1
102
RTVSPost2010Prop40
 90
        0
102
RTVSPost2010PropOp40
 70
     1
102
RTVSPost2010Prop41ColorIndex
 90
       18
102
RTVSPost2010Prop41ColorRGB
 90
        0
102
RTVSPost2010PropOp41
 70
     1
102
RTVSPost2010Prop42
 90
       50
102
RTVSPost2010PropOp42
 70
     1
102
RTVSPost2010Prop43
 90
        3
102
RTVSPost2010PropOp43
 70
     1
102
RTVSPost2010Prop44ColorIndex
 90
        5
102
RTVSPost2010Prop44ColorRGB
 90
      255
102
RTVSPost2010PropOp44
 70
     1
102
RTVSPost2010Prop45
280
     0
102
RTVSPost2010PropOp45
 70
     1
102
RTVSPost2010Prop46
 90
       50
102
RTVSPost2010PropOp46
 70
     1
102
RTVSPost2010Prop47
 90
       50
102
RTVSPost2010PropOp47
 70
     1
102
RTVSPost2010Prop48
 90
       50
102
RTVSPost2010PropOp48
 70
     1
102
RTVSPost2010Prop49
280
     0
102
RTVSPost2010PropOp49
 70
     1
102
RTVSPost2010Prop50
 90
       50
102
RTVSPost2010PropOp50
 70
     1
102
RTVSPost2010Prop51ColorIndex
 90
      256
102
RTVSPost2010Prop51ColorRGB
 90
-16777216
102
RTVSPost2010PropOp51
 70
     0
102
RTVSPost2010Prop52
140
1.0
102
RTVSPost2010PropOp52
 70
     0
102
RTVSPost2010Prop53
 90
        2
102
RTVSPost2010PropOp53
 70
     1
102
RTVSPost2010Prop54
  1
strokes_ogs.tif
102
RTVSPost2010PropOp54
 70
     1
102
RTVSPost2010Prop55
280
     0
102
RTVSPost2010PropOp55
 70
     1
102
RTVSPost2010Prop56
140
1.0
102
RTVSPost2010PropOp56
 70
     1
102
RTVSPost2010Prop57
140
1.0
102
RTVSPost2010PropOp57
 70
     1
  0
XRECORD
  5
3D5
102
{ACAD_REACTORS
330
3D4
102
}
330
3D4
100
AcDbXrecord
280
     1
102
RTVSPost2010Prop28
280
     0
102
RTVSPost2010PropOp28
 70
     1
102
RTVSPost2010Prop29
280
     1
102
RTVSPost2010PropOp29
 70
     1
102
RTVSPost2010Prop30
280
     1
102
RTVSPost2010PropOp30
 70
     1
102
RTVSPost2010Prop31
280
     0
102
RTVSPost2010PropOp31
 70
     1
102
RTVSPost2010Prop32
280
     0
102
RTVSPost2010PropOp32
 70
     1
102
RTVSPost2010Prop33
280
     0
102
RTVSPost2010PropOp33
 70
     1
102
RTVSPost2010Prop34
280
     0
102
RTVSPost2010PropOp34
 70
     1
102
RTVSPost2010Prop35
280
     0
102
RTVSPost2010PropOp35
 70
     1
102
RTVSPost2010Prop36
280
     0
102
RTVSPost2010PropOp36
 70
     1
102
RTVSPost2010Prop37
 90
       50
102
RTVSPost2010PropOp37
 70
     1
102
RTVSPost2010Prop38
140
0.0
102
RTVSPost2010PropOp38
 70
     1
102
RTVSPost2010Prop39
140
1.0
102
RTVSPost2010PropOp39
 70
     1
102
RTVSPost2010Prop40
 90
        0
102
RTVSPost2010PropOp40
 70
     1
102
RTVSPost2010Prop41ColorIndex
 90
       18
102
RTVSPost2010Prop41ColorRGB
 90
        0
102
RTVSPost2010PropOp41
 70
     1
102
RTVSPost2010Prop42
 90
       50
102
RTVSPost2010PropOp42
 70
     1
102
RTVSPost2010Prop43
 90
        3
102
RTVSPost2010PropOp43
 70
     1
102
RTVSPost2010Prop44ColorIndex
 90
        5
102
RTVSPost2010Prop44ColorRGB
 90
      255
102
RTVSPost2010PropOp44
 70
     1
102
RTVSPost2010Prop45
280
     0
102
RTVSPost2010PropOp45
 70
     1
102
RTVSPost2010Prop46
 90
       50
102
RTVSPost2010PropOp46
 70
     1
102
RTVSPost2010Prop47
 90
       50
102
RTVSPost2010PropOp47
 70
     1
102
RTVSPost2010Prop48
 90
       50
102
RTVSPost2010PropOp48
 70
     1
102
RTVSPost2010Prop49
280
     0
102
RTVSPost2010PropOp49
 70
     1
102
RTVSPost2010Prop50
 90
       50
102
RTVSPost2010PropOp50
 70
     1
102
RTVSPost2010Prop51ColorIndex
 90
      256
102
RTVSPost2010Prop51ColorRGB
 90
-16777216
102
RTVSPost2010PropOp51
 70
     0
102
RTVSPost2010Prop52
140
1.0
102
RTVSPost2010PropOp52
 70
     0
102
RTVSPost2010Prop53
 90
        2
102
RTVSPost2010PropOp53
 70
     1
102
RTVSPost2010Prop54
  1
strokes_ogs.tif
102
RTVSPost2010PropOp54
 70
     1
102
RTVSPost2010Prop55
280
     0
102
RTVSPost2010PropOp55
 70
     1
102
RTVSPost2010Prop56
140
1.0
102
RTVSPost2010PropOp56
 70
     1
102
RTVSPost2010Prop57
140
1.0
102
RTVSPost2010PropOp57
 70
     1
  0
XRECORD
  5
3DD
102
{ACAD_REACTORS
330
3DC
102
}
330
3DC
100
AcDbXrecord
280
     1
102
RTVSPost2010Prop28
280
     0
102
RTVSPost2010PropOp28
 70
     1
102
RTVSPost2010Prop29
280
     1
102
RTVSPost2010PropOp29
 70
     1
102
RTVSPost2010Prop30
280
     1
102
RTVSPost2010PropOp30
 70
     1
102
RTVSPost2010Prop31
280
     0
102
RTVSPost2010PropOp31
 70
     1
102
RTVSPost2010Prop32
280
     0
102
RTVSPost2010PropOp32
 70
     1
102
RTVSPost2010Prop33
280
     0
102
RTVSPost2010PropOp33
 70
     1
102
RTVSPost2010Prop34
280
     0
102
RTVSPost2010PropOp34
 70
     1
102
RTVSPost2010Prop35
280
     0
102
RTVSPost2010PropOp35
 70
     1
102
RTVSPost2010Prop36
280
     0
102
RTVSPost2010PropOp36
 70
     1
102
RTVSPost2010Prop37
 90
       50
102
RTVSPost2010PropOp37
 70
     1
102
RTVSPost2010Prop38
140
0.0
102
RTVSPost2010PropOp38
 70
     1
102
RTVSPost2010Prop39
140
1.0
102
RTVSPost2010PropOp39
 70
     1
102
RTVSPost2010Prop40
 90
        0
102
RTVSPost2010PropOp40
 70
     1
102
RTVSPost2010Prop41ColorIndex
 90
       18
102
RTVSPost2010Prop41ColorRGB
 90
        0
102
RTVSPost2010PropOp41
 70
     1
102
RTVSPost2010Prop42
 90
       50
102
RTVSPost2010PropOp42
 70
     1
102
RTVSPost2010Prop43
 90
        3
102
RTVSPost2010PropOp43
 70
     1
102
RTVSPost2010Prop44ColorIndex
 90
        5
102
RTVSPost2010Prop44ColorRGB
 90
      255
102
RTVSPost2010PropOp44
 70
     1
102
RTVSPost2010Prop45
280
     0
102
RTVSPost2010PropOp45
 70
     1
102
RTVSPost2010Prop46
 90
       50
102
RTVSPost2010PropOp46
 70
     1
102
RTVSPost2010Prop47
 90
       50
102
RTVSPost2010PropOp47
 70
     1
102
RTVSPost2010Prop48
 90
       50
102
RTVSPost2010PropOp48
 70
     1
102
RTVSPost2010Prop49
280
     0
102
RTVSPost2010PropOp49
 70
     1
102
RTVSPost2010Prop50
 90
       50
102
RTVSPost2010PropOp50
 70
     1
102
RTVSPost2010Prop51ColorIndex
 90
      256
102
RTVSPost2010Prop51ColorRGB
 90
-16777216
102
RTVSPost2010PropOp51
 70
     0
102
RTVSPost2010Prop52
140
1.0
102
RTVSPost2010PropOp52
 70
     0
102
RTVSPost2010Prop53
 90
        2
102
RTVSPost2010PropOp53
 70
     1
102
RTVSPost2010Prop54
  1
strokes_ogs.tif
102
RTVSPost2010PropOp54
 70
     1
102
RTVSPost2010Prop55
280
     0
102
RTVSPost2010PropOp55
 70
     1
102
RTVSPost2010Prop56
140
1.0
102
RTVSPost2010PropOp56
 70
     1
102
RTVSPost2010Prop57
140
1.0
102
RTVSPost2010PropOp57
 70
     1
  0
XRECORD
  5
3D1
102
{ACAD_REACTORS
330
3D0
102
}
330
3D0
100
AcDbXrecord
280
     1
102
RTVSPost2010Prop28
280
     0
102
RTVSPost2010PropOp28
 70
     1
102
RTVSPost2010Prop29
280
     1
102
RTVSPost2010PropOp29
 70
     1
102
RTVSPost2010Prop30
280
     1
102
RTVSPost2010PropOp30
 70
     1
102
RTVSPost2010Prop31
280
     0
102
RTVSPost2010PropOp31
 70
     1
102
RTVSPost2010Prop32
280
     0
102
RTVSPost2010PropOp32
 70
     1
102
RTVSPost2010Prop33
280
     0
102
RTVSPost2010PropOp33
 70
     1
102
RTVSPost2010Prop34
280
     0
102
RTVSPost2010PropOp34
 70
     1
102
RTVSPost2010Prop35
280
     0
102
RTVSPost2010PropOp35
 70
     1
102
RTVSPost2010Prop36
280
     0
102
RTVSPost2010PropOp36
 70
     1
102
RTVSPost2010Prop37
 90
       50
102
RTVSPost2010PropOp37
 70
     1
102
RTVSPost2010Prop38
140
0.0
102
RTVSPost2010PropOp38
 70
     1
102
RTVSPost2010Prop39
140
1.0
102
RTVSPost2010PropOp39
 70
     1
102
RTVSPost2010Prop40
 90
        0
102
RTVSPost2010PropOp40
 70
     1
102
RTVSPost2010Prop41ColorIndex
 90
       18
102
RTVSPost2010Prop41ColorRGB
 90
        0
102
RTVSPost2010PropOp41
 70
     1
102
RTVSPost2010Prop42
 90
       50
102
RTVSPost2010PropOp42
 70
     1
102
RTVSPost2010Prop43
 90
        3
102
RTVSPost2010PropOp43
 70
     1
102
RTVSPost2010Prop44ColorIndex
 90
        5
102
RTVSPost2010Prop44ColorRGB
 90
      255
102
RTVSPost2010PropOp44
 70
     1
102
RTVSPost2010Prop45
280
     0
102
RTVSPost2010PropOp45
 70
     1
102
RTVSPost2010Prop46
 90
       50
102
RTVSPost2010PropOp46
 70
     1
102
RTVSPost2010Prop47
 90
       50
102
RTVSPost2010PropOp47
 70
     1
102
RTVSPost2010Prop48
 90
       50
102
RTVSPost2010PropOp48
 70
     1
102
RTVSPost2010Prop49
280
     0
102
RTVSPost2010PropOp49
 70
     1
102
RTVSPost2010Prop50
 90
       50
102
RTVSPost2010PropOp50
 70
     1
102
RTVSPost2010Prop51ColorIndex
 90
      256
102
RTVSPost2010Prop51ColorRGB
 90
-16777216
102
RTVSPost2010PropOp51
 70
     0
102
RTVSPost2010Prop52
140
1.0
102
RTVSPost2010PropOp52
 70
     0
102
RTVSPost2010Prop53
 90
        2
102
RTVSPost2010PropOp53
 70
     1
102
RTVSPost2010Prop54
  1
strokes_ogs.tif
102
RTVSPost2010PropOp54
 70
     1
102
RTVSPost2010Prop55
280
     0
102
RTVSPost2010PropOp55
 70
     1
102
RTVSPost2010Prop56
140
1.0
102
RTVSPost2010PropOp56
 70
     1
102
RTVSPost2010Prop57
140
1.0
102
RTVSPost2010PropOp57
 70
     1
  0
XRECORD
  5
3D3
102
{ACAD_REACTORS
330
3D2
102
}
330
3D2
100
AcDbXrecord
280
     1
102
RTVSPost2010Prop28
280
     0
102
RTVSPost2010PropOp28
 70
     1
102
RTVSPost2010Prop29
280
     1
102
RTVSPost2010PropOp29
 70
     1
102
RTVSPost2010Prop30
280
     1
102
RTVSPost2010PropOp30
 70
     1
102
RTVSPost2010Prop31
280
     0
102
RTVSPost2010PropOp31
 70
     1
102
RTVSPost2010Prop32
280
     0
102
RTVSPost2010PropOp32
 70
     1
102
RTVSPost2010Prop33
280
     0
102
RTVSPost2010PropOp33
 70
     1
102
RTVSPost2010Prop34
280
     0
102
RTVSPost2010PropOp34
 70
     1
102
RTVSPost2010Prop35
280
     0
102
RTVSPost2010PropOp35
 70
     1
102
RTVSPost2010Prop36
280
     0
102
RTVSPost2010PropOp36
 70
     1
102
RTVSPost2010Prop37
 90
       50
102
RTVSPost2010PropOp37
 70
     1
102
RTVSPost2010Prop38
140
0.0
102
RTVSPost2010PropOp38
 70
     1
102
RTVSPost2010Prop39
140
1.0
102
RTVSPost2010PropOp39
 70
     1
102
RTVSPost2010Prop40
 90
        0
102
RTVSPost2010PropOp40
 70
     1
102
RTVSPost2010Prop41ColorIndex
 90
       18
102
RTVSPost2010Prop41ColorRGB
 90
        0
102
RTVSPost2010PropOp41
 70
     1
102
RTVSPost2010Prop42
 90
       50
102
RTVSPost2010PropOp42
 70
     1
102
RTVSPost2010Prop43
 90
        3
102
RTVSPost2010PropOp43
 70
     1
102
RTVSPost2010Prop44ColorIndex
 90
        5
102
RTVSPost2010Prop44ColorRGB
 90
      255
102
RTVSPost2010PropOp44
 70
     1
102
RTVSPost2010Prop45
280
     0
102
RTVSPost2010PropOp45
 70
     1
102
RTVSPost2010Prop46
 90
       50
102
RTVSPost2010PropOp46
 70
     1
102
RTVSPost2010Prop47
 90
       50
102
RTVSPost2010PropOp47
 70
     1
102
RTVSPost2010Prop48
 90
       50
102
RTVSPost2010PropOp48
 70
     1
102
RTVSPost2010Prop49
280
     0
102
RTVSPost2010PropOp49
 70
     1
102
RTVSPost2010Prop50
 90
       50
102
RTVSPost2010PropOp50
 70
     1
102
RTVSPost2010Prop51ColorIndex
 90
      256
102
RTVSPost2010Prop51ColorRGB
 90
-16777216
102
RTVSPost2010PropOp51
 70
     0
102
RTVSPost2010Prop52
140
1.0
102
RTVSPost2010PropOp52
 70
     0
102
RTVSPost2010Prop53
 90
        2
102
RTVSPost2010PropOp53
 70
     1
102
RTVSPost2010Prop54
  1
strokes_ogs.tif
102
RTVSPost2010PropOp54
 70
     1
102
RTVSPost2010Prop55
280
     0
102
RTVSPost2010PropOp55
 70
     1
102
RTVSPost2010Prop56
140
1.0
102
RTVSPost2010PropOp56
 70
     1
102
RTVSPost2010Prop57
140
1.0
102
RTVSPost2010PropOp57
 70
     1
  0
XRECORD
  5
3E3
102
{ACAD_REACTORS
330
3E2
102
}
330
3E2
100
AcDbXrecord
280
     1
102
RTVSPost2010Prop28
280
     0
102
RTVSPost2010PropOp28
 70
     0
102
RTVSPost2010Prop29
280
     1
102
RTVSPost2010PropOp29
 70
     0
102
RTVSPost2010Prop30
280
     1
102
RTVSPost2010PropOp30
 70
     0
102
RTVSPost2010Prop31
280
     0
102
RTVSPost2010PropOp31
 70
     0
102
RTVSPost2010Prop32
280
     0
102
RTVSPost2010PropOp32
 70
     0
102
RTVSPost2010Prop33
280
     0
102
RTVSPost2010PropOp33
 70
     0
102
RTVSPost2010Prop34
280
     0
102
RTVSPost2010PropOp34
 70
     0
102
RTVSPost2010Prop35
280
     0
102
RTVSPost2010PropOp35
 70
     0
102
RTVSPost2010Prop36
280
     0
102
RTVSPost2010PropOp36
 70
     0
102
RTVSPost2010Prop37
 90
       50
102
RTVSPost2010PropOp37
 70
     0
102
RTVSPost2010Prop38
140
0.0
102
RTVSPost2010PropOp38
 70
     0
102
RTVSPost2010Prop39
140
1.0
102
RTVSPost2010PropOp39
 70
     0
102
RTVSPost2010Prop40
 90
        0
102
RTVSPost2010PropOp40
 70
     0
102
RTVSPost2010Prop41ColorIndex
 90
       18
102
RTVSPost2010Prop41ColorRGB
 90
        0
102
RTVSPost2010PropOp41
 70
     0
102
RTVSPost2010Prop42
 90
       50
102
RTVSPost2010PropOp42
 70
     0
102
RTVSPost2010Prop43
 90
        3
102
RTVSPost2010PropOp43
 70
     0
102
RTVSPost2010Prop44ColorIndex
 90
        5
102
RTVSPost2010Prop44ColorRGB
 90
      255
102
RTVSPost2010PropOp44
 70
     0
102
RTVSPost2010Prop45
280
     0
102
RTVSPost2010PropOp45
 70
     0
102
RTVSPost2010Prop46
 90
       50
102
RTVSPost2010PropOp46
 70
     0
102
RTVSPost2010Prop47
 90
       50
102
RTVSPost2010PropOp47
 70
     0
102
RTVSPost2010Prop48
 90
       50
102
RTVSPost2010PropOp48
 70
     0
102
RTVSPost2010Prop49
280
     0
102
RTVSPost2010PropOp49
 70
     0
102
RTVSPost2010Prop50
 90
       50
102
RTVSPost2010PropOp50
 70
     0
102
RTVSPost2010Prop51ColorIndex
 90
      256
102
RTVSPost2010Prop51ColorRGB
 90
-16777216
102
RTVSPost2010PropOp51
 70
     0
102
RTVSPost2010Prop52
140
1.0
102
RTVSPost2010PropOp52
 70
     0
102
RTVSPost2010Prop53
 90
        2
102
RTVSPost2010PropOp53
 70
     0
102
RTVSPost2010Prop54
  1
strokes_ogs.tif
102
RTVSPost2010PropOp54
 70
     0
102
RTVSPost2010Prop55
280
     0
102
RTVSPost2010PropOp55
 70
     0
102
RTVSPost2010Prop56
140
1.0
102
RTVSPost2010PropOp56
 70
     0
102
RTVSPost2010Prop57
140
1.0
102
RTVSPost2010PropOp57
 70
     0
  0
XRECORD
  5
3DB
102
{ACAD_REACTORS
330
3DA
102
}
330
3DA
100
AcDbXrecord
280
     1
102
RTVSPost2010Prop28
280
     0
102
RTVSPost2010PropOp28
 70
     1
102
RTVSPost2010Prop29
280
     1
102
RTVSPost2010PropOp29
 70
     1
102
RTVSPost2010Prop30
280
     1
102
RTVSPost2010PropOp30
 70
     1
102
RTVSPost2010Prop31
280
     0
102
RTVSPost2010PropOp31
 70
     1
102
RTVSPost2010Prop32
280
     0
102
RTVSPost2010PropOp32
 70
     1
102
RTVSPost2010Prop33
280
     0
102
RTVSPost2010PropOp33
 70
     1
102
RTVSPost2010Prop34
280
     0
102
RTVSPost2010PropOp34
 70
     1
102
RTVSPost2010Prop35
280
     0
102
RTVSPost2010PropOp35
 70
     1
102
RTVSPost2010Prop36
280
     0
102
RTVSPost2010PropOp36
 70
     1
102
RTVSPost2010Prop37
 90
       50
102
RTVSPost2010PropOp37
 70
     1
102
RTVSPost2010Prop38
140
0.0
102
RTVSPost2010PropOp38
 70
     1
102
RTVSPost2010Prop39
140
1.0
102
RTVSPost2010PropOp39
 70
     1
102
RTVSPost2010Prop40
 90
        0
102
RTVSPost2010PropOp40
 70
     1
102
RTVSPost2010Prop41ColorIndex
 90
       18
102
RTVSPost2010Prop41ColorRGB
 90
        0
102
RTVSPost2010PropOp41
 70
     1
102
RTVSPost2010Prop42
 90
       50
102
RTVSPost2010PropOp42
 70
     1
102
RTVSPost2010Prop43
 90
        3
102
RTVSPost2010PropOp43
 70
     1
102
RTVSPost2010Prop44ColorIndex
 90
        5
102
RTVSPost2010Prop44ColorRGB
 90
      255
102
RTVSPost2010PropOp44
 70
     1
102
RTVSPost2010Prop45
280
     0
102
RTVSPost2010PropOp45
 70
     1
102
RTVSPost2010Prop46
 90
       50
102
RTVSPost2010PropOp46
 70
     1
102
RTVSPost2010Prop47
 90
       50
102
RTVSPost2010PropOp47
 70
     1
102
RTVSPost2010Prop48
 90
       50
102
RTVSPost2010PropOp48
 70
     1
102
RTVSPost2010Prop49
280
     0
102
RTVSPost2010PropOp49
 70
     1
102
RTVSPost2010Prop50
 90
       50
102
RTVSPost2010PropOp50
 70
     1
102
RTVSPost2010Prop51ColorIndex
 90
      256
102
RTVSPost2010Prop51ColorRGB
 90
-16777216
102
RTVSPost2010PropOp51
 70
     0
102
RTVSPost2010Prop52
140
1.0
102
RTVSPost2010PropOp52
 70
     0
102
RTVSPost2010Prop53
 90
        2
102
RTVSPost2010PropOp53
 70
     1
102
RTVSPost2010Prop54
  1
strokes_ogs.tif
102
RTVSPost2010PropOp54
 70
     1
102
RTVSPost2010Prop55
280
     0
102
RTVSPost2010PropOp55
 70
     1
102
RTVSPost2010Prop56
140
1.0
102
RTVSPost2010PropOp56
 70
     1
102
RTVSPost2010Prop57
140
1.0
102
RTVSPost2010PropOp57
 70
     1
  0
XRECORD
  5
3BF
102
{ACAD_REACTORS
330
3BE
102
}
330
3BE
100
AcDbXrecord
280
     1
102
RTVSPost2010Prop28
280
     0
102
RTVSPost2010PropOp28
 70
     1
102
RTVSPost2010Prop29
280
     1
102
RTVSPost2010PropOp29
 70
     1
102
RTVSPost2010Prop30
280
     1
102
RTVSPost2010PropOp30
 70
     1
102
RTVSPost2010Prop31
280
     0
102
RTVSPost2010PropOp31
 70
     1
102
RTVSPost2010Prop32
280
     0
102
RTVSPost2010PropOp32
 70
     1
102
RTVSPost2010Prop33
280
     0
102
RTVSPost2010PropOp33
 70
     1
102
RTVSPost2010Prop34
280
     0
102
RTVSPost2010PropOp34
 70
     1
102
RTVSPost2010Prop35
280
     0
102
RTVSPost2010PropOp35
 70
     1
102
RTVSPost2010Prop36
280
     0
102
RTVSPost2010PropOp36
 70
     1
102
RTVSPost2010Prop37
 90
       50
102
RTVSPost2010PropOp37
 70
     1
102
RTVSPost2010Prop38
140
0.0
102
RTVSPost2010PropOp38
 70
     1
102
RTVSPost2010Prop39
140
1.0
102
RTVSPost2010PropOp39
 70
     1
102
RTVSPost2010Prop40
 90
        0
102
RTVSPost2010PropOp40
 70
     1
102
RTVSPost2010Prop41ColorIndex
 90
       18
102
RTVSPost2010Prop41ColorRGB
 90
        0
102
RTVSPost2010PropOp41
 70
     1
102
RTVSPost2010Prop42
 90
       50
102
RTVSPost2010PropOp42
 70
     1
102
RTVSPost2010Prop43
 90
        3
102
RTVSPost2010PropOp43
 70
     1
102
RTVSPost2010Prop44ColorIndex
 90
        5
102
RTVSPost2010Prop44ColorRGB
 90
      255
102
RTVSPost2010PropOp44
 70
     1
102
RTVSPost2010Prop45
280
     0
102
RTVSPost2010PropOp45
 70
     1
102
RTVSPost2010Prop46
 90
       50
102
RTVSPost2010PropOp46
 70
     1
102
RTVSPost2010Prop47
 90
       50
102
RTVSPost2010PropOp47
 70
     1
102
RTVSPost2010Prop48
 90
       50
102
RTVSPost2010PropOp48
 70
     1
102
RTVSPost2010Prop49
280
     0
102
RTVSPost2010PropOp49
 70
     1
102
RTVSPost2010Prop50
 90
       50
102
RTVSPost2010PropOp50
 70
     1
102
RTVSPost2010Prop51ColorIndex
 90
      256
102
RTVSPost2010Prop51ColorRGB
 90
-16777216
102
RTVSPost2010PropOp51
 70
     0
102
RTVSPost2010Prop52
140
1.0
102
RTVSPost2010PropOp52
 70
     0
102
RTVSPost2010Prop53
 90
        2
102
RTVSPost2010PropOp53
 70
     1
102
RTVSPost2010Prop54
  1
strokes_ogs.tif
102
RTVSPost2010PropOp54
 70
     1
102
RTVSPost2010Prop55
280
     0
102
RTVSPost2010PropOp55
 70
     1
102
RTVSPost2010Prop56
140
1.0
102
RTVSPost2010PropOp56
 70
     1
102
RTVSPost2010Prop57
140
1.0
102
RTVSPost2010PropOp57
 70
     1
  0
XRECORD
  5
3C1
102
{ACAD_REACTORS
330
3C0
102
}
330
3C0
100
AcDbXrecord
280
     1
102
RTVSPost2010Prop28
280
     0
102
RTVSPost2010PropOp28
 70
     1
102
RTVSPost2010Prop29
280
     1
102
RTVSPost2010PropOp29
 70
     1
102
RTVSPost2010Prop30
280
     1
102
RTVSPost2010PropOp30
 70
     1
102
RTVSPost2010Prop31
280
     0
102
RTVSPost2010PropOp31
 70
     1
102
RTVSPost2010Prop32
280
     0
102
RTVSPost2010PropOp32
 70
     1
102
RTVSPost2010Prop33
280
     0
102
RTVSPost2010PropOp33
 70
     1
102
RTVSPost2010Prop34
280
     0
102
RTVSPost2010PropOp34
 70
     1
102
RTVSPost2010Prop35
280
     0
102
RTVSPost2010PropOp35
 70
     1
102
RTVSPost2010Prop36
280
     0
102
RTVSPost2010PropOp36
 70
     1
102
RTVSPost2010Prop37
 90
       50
102
RTVSPost2010PropOp37
 70
     1
102
RTVSPost2010Prop38
140
0.0
102
RTVSPost2010PropOp38
 70
     1
102
RTVSPost2010Prop39
140
1.0
102
RTVSPost2010PropOp39
 70
     1
102
RTVSPost2010Prop40
 90
        0
102
RTVSPost2010PropOp40
 70
     1
102
RTVSPost2010Prop41ColorIndex
 90
       18
102
RTVSPost2010Prop41ColorRGB
 90
        0
102
RTVSPost2010PropOp41
 70
     1
102
RTVSPost2010Prop42
 90
       50
102
RTVSPost2010PropOp42
 70
     1
102
RTVSPost2010Prop43
 90
        3
102
RTVSPost2010PropOp43
 70
     1
102
RTVSPost2010Prop44ColorIndex
 90
        5
102
RTVSPost2010Prop44ColorRGB
 90
      255
102
RTVSPost2010PropOp44
 70
     1
102
RTVSPost2010Prop45
280
     0
102
RTVSPost2010PropOp45
 70
     1
102
RTVSPost2010Prop46
 90
       50
102
RTVSPost2010PropOp46
 70
     1
102
RTVSPost2010Prop47
 90
       50
102
RTVSPost2010PropOp47
 70
     1
102
RTVSPost2010Prop48
 90
       50
102
RTVSPost2010PropOp48
 70
     1
102
RTVSPost2010Prop49
280
     0
102
RTVSPost2010PropOp49
 70
     1
102
RTVSPost2010Prop50
 90
       50
102
RTVSPost2010PropOp50
 70
     1
102
RTVSPost2010Prop51ColorIndex
 90
      256
102
RTVSPost2010Prop51ColorRGB
 90
-16777216
102
RTVSPost2010PropOp51
 70
     0
102
RTVSPost2010Prop52
140
1.0
102
RTVSPost2010PropOp52
 70
     0
102
RTVSPost2010Prop53
 90
        2
102
RTVSPost2010PropOp53
 70
     1
102
RTVSPost2010Prop54
  1
strokes_ogs.tif
102
RTVSPost2010PropOp54
 70
     1
102
RTVSPost2010Prop55
280
     0
102
RTVSPost2010PropOp55
 70
     1
102
RTVSPost2010Prop56
140
1.0
102
RTVSPost2010PropOp56
 70
     1
102
RTVSPost2010Prop57
140
1.0
102
RTVSPost2010PropOp57
 70
     1
  0
XRECORD
  5
3C3
102
{ACAD_REACTORS
330
3C2
102
}
330
3C2
100
AcDbXrecord
280
     1
102
RTVSPost2010Prop28
280
     0
102
RTVSPost2010PropOp28
 70
     1
102
RTVSPost2010Prop29
280
     1
102
RTVSPost2010PropOp29
 70
     1
102
RTVSPost2010Prop30
280
     1
102
RTVSPost2010PropOp30
 70
     1
102
RTVSPost2010Prop31
280
     0
102
RTVSPost2010PropOp31
 70
     1
102
RTVSPost2010Prop32
280
     0
102
RTVSPost2010PropOp32
 70
     1
102
RTVSPost2010Prop33
280
     0
102
RTVSPost2010PropOp33
 70
     1
102
RTVSPost2010Prop34
280
     0
102
RTVSPost2010PropOp34
 70
     1
102
RTVSPost2010Prop35
280
     0
102
RTVSPost2010PropOp35
 70
     1
102
RTVSPost2010Prop36
280
     0
102
RTVSPost2010PropOp36
 70
     1
102
RTVSPost2010Prop37
 90
       50
102
RTVSPost2010PropOp37
 70
     1
102
RTVSPost2010Prop38
140
0.0
102
RTVSPost2010PropOp38
 70
     1
102
RTVSPost2010Prop39
140
1.0
102
RTVSPost2010PropOp39
 70
     1
102
RTVSPost2010Prop40
 90
        0
102
RTVSPost2010PropOp40
 70
     1
102
RTVSPost2010Prop41ColorIndex
 90
       18
102
RTVSPost2010Prop41ColorRGB
 90
        0
102
RTVSPost2010PropOp41
 70
     1
102
RTVSPost2010Prop42
 90
       50
102
RTVSPost2010PropOp42
 70
     1
102
RTVSPost2010Prop43
 90
        3
102
RTVSPost2010PropOp43
 70
     1
102
RTVSPost2010Prop44ColorIndex
 90
        5
102
RTVSPost2010Prop44ColorRGB
 90
      255
102
RTVSPost2010PropOp44
 70
     1
102
RTVSPost2010Prop45
280
     0
102
RTVSPost2010PropOp45
 70
     1
102
RTVSPost2010Prop46
 90
       50
102
RTVSPost2010PropOp46
 70
     1
102
RTVSPost2010Prop47
 90
       50
102
RTVSPost2010PropOp47
 70
     1
102
RTVSPost2010Prop48
 90
       50
102
RTVSPost2010PropOp48
 70
     1
102
RTVSPost2010Prop49
280
     0
102
RTVSPost2010PropOp49
 70
     1
102
RTVSPost2010Prop50
 90
       50
102
RTVSPost2010PropOp50
 70
     1
102
RTVSPost2010Prop51ColorIndex
 90
      256
102
RTVSPost2010Prop51ColorRGB
 90
-16777216
102
RTVSPost2010PropOp51
 70
     0
102
RTVSPost2010Prop52
140
1.0
102
RTVSPost2010PropOp52
 70
     0
102
RTVSPost2010Prop53
 90
        2
102
RTVSPost2010PropOp53
 70
     1
102
RTVSPost2010Prop54
  1
strokes_ogs.tif
102
RTVSPost2010PropOp54
 70
     1
102
RTVSPost2010Prop55
280
     0
102
RTVSPost2010PropOp55
 70
     1
102
RTVSPost2010Prop56
140
1.0
102
RTVSPost2010PropOp56
 70
     1
102
RTVSPost2010Prop57
140
1.0
102
RTVSPost2010PropOp57
 70
     1
  0
XRECORD
  5
3C5
102
{ACAD_REACTORS
330
3C4
102
}
330
3C4
100
AcDbXrecord
280
     1
102
RTVSPost2010Prop28
280
     0
102
RTVSPost2010PropOp28
 70
     1
102
RTVSPost2010Prop29
280
     1
102
RTVSPost2010PropOp29
 70
     1
102
RTVSPost2010Prop30
280
     1
102
RTVSPost2010PropOp30
 70
     1
102
RTVSPost2010Prop31
280
     0
102
RTVSPost2010PropOp31
 70
     1
102
RTVSPost2010Prop32
280
     0
102
RTVSPost2010PropOp32
 70
     1
102
RTVSPost2010Prop33
280
     0
102
RTVSPost2010PropOp33
 70
     1
102
RTVSPost2010Prop34
280
     0
102
RTVSPost2010PropOp34
 70
     1
102
RTVSPost2010Prop35
280
     0
102
RTVSPost2010PropOp35
 70
     1
102
RTVSPost2010Prop36
280
     0
102
RTVSPost2010PropOp36
 70
     1
102
RTVSPost2010Prop37
 90
       50
102
RTVSPost2010PropOp37
 70
     1
102
RTVSPost2010Prop38
140
0.0
102
RTVSPost2010PropOp38
 70
     1
102
RTVSPost2010Prop39
140
1.0
102
RTVSPost2010PropOp39
 70
     1
102
RTVSPost2010Prop40
 90
        0
102
RTVSPost2010PropOp40
 70
     1
102
RTVSPost2010Prop41ColorIndex
 90
       18
102
RTVSPost2010Prop41ColorRGB
 90
        0
102
RTVSPost2010PropOp41
 70
     1
102
RTVSPost2010Prop42
 90
       50
102
RTVSPost2010PropOp42
 70
     1
102
RTVSPost2010Prop43
 90
        3
102
RTVSPost2010PropOp43
 70
     1
102
RTVSPost2010Prop44ColorIndex
 90
        5
102
RTVSPost2010Prop44ColorRGB
 90
      255
102
RTVSPost2010PropOp44
 70
     1
102
RTVSPost2010Prop45
280
     0
102
RTVSPost2010PropOp45
 70
     1
102
RTVSPost2010Prop46
 90
       50
102
RTVSPost2010PropOp46
 70
     1
102
RTVSPost2010Prop47
 90
       50
102
RTVSPost2010PropOp47
 70
     1
102
RTVSPost2010Prop48
 90
       50
102
RTVSPost2010PropOp48
 70
     1
102
RTVSPost2010Prop49
280
     0
102
RTVSPost2010PropOp49
 70
     1
102
RTVSPost2010Prop50
 90
       50
102
RTVSPost2010PropOp50
 70
     1
102
RTVSPost2010Prop51ColorIndex
 90
      256
102
RTVSPost2010Prop51ColorRGB
 90
-16777216
102
RTVSPost2010PropOp51
 70
     0
102
RTVSPost2010Prop52
140
1.0
102
RTVSPost2010PropOp52
 70
     0
102
RTVSPost2010Prop53
 90
        2
102
RTVSPost2010PropOp53
 70
     1
102
RTVSPost2010Prop54
  1
strokes_ogs.tif
102
RTVSPost2010PropOp54
 70
     1
102
RTVSPost2010Prop55
280
     0
102
RTVSPost2010PropOp55
 70
     1
102
RTVSPost2010Prop56
140
1.0
102
RTVSPost2010PropOp56
 70
     1
102
RTVSPost2010Prop57
140
1.0
102
RTVSPost2010PropOp57
 70
     1
  0
XRECORD
  5
3CB
102
{ACAD_REACTORS
330
3CA
102
}
330
3CA
100
AcDbXrecord
280
     1
102
RTVSPost2010Prop28
280
     0
102
RTVSPost2010PropOp28
 70
     1
102
RTVSPost2010Prop29
280
     1
102
RTVSPost2010PropOp29
 70
     1
102
RTVSPost2010Prop30
280
     1
102
RTVSPost2010PropOp30
 70
     1
102
RTVSPost2010Prop31
280
     0
102
RTVSPost2010PropOp31
 70
     1
102
RTVSPost2010Prop32
280
     0
102
RTVSPost2010PropOp32
 70
     1
102
RTVSPost2010Prop33
280
     0
102
RTVSPost2010PropOp33
 70
     1
102
RTVSPost2010Prop34
280
     0
102
RTVSPost2010PropOp34
 70
     1
102
RTVSPost2010Prop35
280
     0
102
RTVSPost2010PropOp35
 70
     1
102
RTVSPost2010Prop36
280
     0
102
RTVSPost2010PropOp36
 70
     1
102
RTVSPost2010Prop37
 90
       50
102
RTVSPost2010PropOp37
 70
     1
102
RTVSPost2010Prop38
140
0.0
102
RTVSPost2010PropOp38
 70
     1
102
RTVSPost2010Prop39
140
1.0
102
RTVSPost2010PropOp39
 70
     1
102
RTVSPost2010Prop40
 90
        0
102
RTVSPost2010PropOp40
 70
     1
102
RTVSPost2010Prop41ColorIndex
 90
       18
102
RTVSPost2010Prop41ColorRGB
 90
        0
102
RTVSPost2010PropOp41
 70
     1
102
RTVSPost2010Prop42
 90
       50
102
RTVSPost2010PropOp42
 70
     1
102
RTVSPost2010Prop43
 90
        3
102
RTVSPost2010PropOp43
 70
     1
102
RTVSPost2010Prop44ColorIndex
 90
        5
102
RTVSPost2010Prop44ColorRGB
 90
      255
102
RTVSPost2010PropOp44
 70
     1
102
RTVSPost2010Prop45
280
     0
102
RTVSPost2010PropOp45
 70
     1
102
RTVSPost2010Prop46
 90
       50
102
RTVSPost2010PropOp46
 70
     1
102
RTVSPost2010Prop47
 90
       50
102
RTVSPost2010PropOp47
 70
     1
102
RTVSPost2010Prop48
 90
       50
102
RTVSPost2010PropOp48
 70
     1
102
RTVSPost2010Prop49
280
     0
102
RTVSPost2010PropOp49
 70
     1
102
RTVSPost2010Prop50
 90
       50
102
RTVSPost2010PropOp50
 70
     1
102
RTVSPost2010Prop51ColorIndex
 90
      256
102
RTVSPost2010Prop51ColorRGB
 90
-16777216
102
RTVSPost2010PropOp51
 70
     0
102
RTVSPost2010Prop52
140
1.0
102
RTVSPost2010PropOp52
 70
     0
102
RTVSPost2010Prop53
 90
        2
102
RTVSPost2010PropOp53
 70
     1
102
RTVSPost2010Prop54
  1
strokes_ogs.tif
102
RTVSPost2010PropOp54
 70
     1
102
RTVSPost2010Prop55
280
     0
102
RTVSPost2010PropOp55
 70
     1
102
RTVSPost2010Prop56
140
1.0
102
RTVSPost2010PropOp56
 70
     1
102
RTVSPost2010Prop57
140
1.0
102
RTVSPost2010PropOp57
 70
     1
  0
XRECORD
  5
3DF
102
{ACAD_REACTORS
330
3DE
102
}
330
3DE
100
AcDbXrecord
280
     1
102
RTVSPost2010Prop28
280
     0
102
RTVSPost2010PropOp28
 70
     0
102
RTVSPost2010Prop29
280
     1
102
RTVSPost2010PropOp29
 70
     0
102
RTVSPost2010Prop30
280
     1
102
RTVSPost2010PropOp30
 70
     0
102
RTVSPost2010Prop31
280
     0
102
RTVSPost2010PropOp31
 70
     0
102
RTVSPost2010Prop32
280
     0
102
RTVSPost2010PropOp32
 70
     0
102
RTVSPost2010Prop33
280
     0
102
RTVSPost2010PropOp33
 70
     0
102
RTVSPost2010Prop34
280
     0
102
RTVSPost2010PropOp34
 70
     0
102
RTVSPost2010Prop35
280
     0
102
RTVSPost2010PropOp35
 70
     0
102
RTVSPost2010Prop36
280
     0
102
RTVSPost2010PropOp36
 70
     0
102
RTVSPost2010Prop37
 90
       50
102
RTVSPost2010PropOp37
 70
     0
102
RTVSPost2010Prop38
140
0.0
102
RTVSPost2010PropOp38
 70
     0
102
RTVSPost2010Prop39
140
1.0
102
RTVSPost2010PropOp39
 70
     0
102
RTVSPost2010Prop40
 90
        0
102
RTVSPost2010PropOp40
 70
     0
102
RTVSPost2010Prop41ColorIndex
 90
       18
102
RTVSPost2010Prop41ColorRGB
 90
        0
102
RTVSPost2010PropOp41
 70
     0
102
RTVSPost2010Prop42
 90
       50
102
RTVSPost2010PropOp42
 70
     0
102
RTVSPost2010Prop43
 90
        3
102
RTVSPost2010PropOp43
 70
     0
102
RTVSPost2010Prop44ColorIndex
 90
        5
102
RTVSPost2010Prop44ColorRGB
 90
      255
102
RTVSPost2010PropOp44
 70
     0
102
RTVSPost2010Prop45
280
     0
102
RTVSPost2010PropOp45
 70
     0
102
RTVSPost2010Prop46
 90
       50
102
RTVSPost2010PropOp46
 70
     0
102
RTVSPost2010Prop47
 90
       50
102
RTVSPost2010PropOp47
 70
     0
102
RTVSPost2010Prop48
 90
       50
102
RTVSPost2010PropOp48
 70
     0
102
RTVSPost2010Prop49
280
     0
102
RTVSPost2010PropOp49
 70
     0
102
RTVSPost2010Prop50
 90
       50
102
RTVSPost2010PropOp50
 70
     0
102
RTVSPost2010Prop51ColorIndex
 90
      256
102
RTVSPost2010Prop51ColorRGB
 90
-16777216
102
RTVSPost2010PropOp51
 70
     0
102
RTVSPost2010Prop52
140
1.0
102
RTVSPost2010PropOp52
 70
     0
102
RTVSPost2010Prop53
 90
        2
102
RTVSPost2010PropOp53
 70
     0
102
RTVSPost2010Prop54
  1
strokes_ogs.tif
102
RTVSPost2010PropOp54
 70
     0
102
RTVSPost2010Prop55
280
     0
102
RTVSPost2010PropOp55
 70
     0
102
RTVSPost2010Prop56
140
1.0
102
RTVSPost2010PropOp56
 70
     0
102
RTVSPost2010Prop57
140
1.0
102
RTVSPost2010PropOp57
 70
     0
  0
XRECORD
  5
3D9
102
{ACAD_REACTORS
330
3D8
102
}
330
3D8
100
AcDbXrecord
280
     1
102
RTVSPost2010Prop28
280
     0
102
RTVSPost2010PropOp28
 70
     1
102
RTVSPost2010Prop29
280
     1
102
RTVSPost2010PropOp29
 70
     1
102
RTVSPost2010Prop30
280
     1
102
RTVSPost2010PropOp30
 70
     1
102
RTVSPost2010Prop31
280
     0
102
RTVSPost2010PropOp31
 70
     1
102
RTVSPost2010Prop32
280
     0
102
RTVSPost2010PropOp32
 70
     1
102
RTVSPost2010Prop33
280
     0
102
RTVSPost2010PropOp33
 70
     1
102
RTVSPost2010Prop34
280
     0
102
RTVSPost2010PropOp34
 70
     1
102
RTVSPost2010Prop35
280
     0
102
RTVSPost2010PropOp35
 70
     1
102
RTVSPost2010Prop36
280
     0
102
RTVSPost2010PropOp36
 70
     1
102
RTVSPost2010Prop37
 90
       50
102
RTVSPost2010PropOp37
 70
     1
102
RTVSPost2010Prop38
140
0.0
102
RTVSPost2010PropOp38
 70
     1
102
RTVSPost2010Prop39
140
1.0
102
RTVSPost2010PropOp39
 70
     1
102
RTVSPost2010Prop40
 90
        0
102
RTVSPost2010PropOp40
 70
     1
102
RTVSPost2010Prop41ColorIndex
 90
       18
102
RTVSPost2010Prop41ColorRGB
 90
        0
102
RTVSPost2010PropOp41
 70
     1
102
RTVSPost2010Prop42
 90
       50
102
RTVSPost2010PropOp42
 70
     1
102
RTVSPost2010Prop43
 90
        3
102
RTVSPost2010PropOp43
 70
     1
102
RTVSPost2010Prop44ColorIndex
 90
        5
102
RTVSPost2010Prop44ColorRGB
 90
      255
102
RTVSPost2010PropOp44
 70
     1
102
RTVSPost2010Prop45
280
     0
102
RTVSPost2010PropOp45
 70
     1
102
RTVSPost2010Prop46
 90
       50
102
RTVSPost2010PropOp46
 70
     1
102
RTVSPost2010Prop47
 90
       50
102
RTVSPost2010PropOp47
 70
     1
102
RTVSPost2010Prop48
 90
       50
102
RTVSPost2010PropOp48
 70
     1
102
RTVSPost2010Prop49
280
     0
102
RTVSPost2010PropOp49
 70
     1
102
RTVSPost2010Prop50
 90
       50
102
RTVSPost2010PropOp50
 70
     1
102
RTVSPost2010Prop51ColorIndex
 90
      256
102
RTVSPost2010Prop51ColorRGB
 90
-16777216
102
RTVSPost2010PropOp51
 70
     0
102
RTVSPost2010Prop52
140
1.0
102
RTVSPost2010PropOp52
 70
     0
102
RTVSPost2010Prop53
 90
        2
102
RTVSPost2010PropOp53
 70
     1
102
RTVSPost2010Prop54
  1
strokes_ogs.tif
102
RTVSPost2010PropOp54
 70
     1
102
RTVSPost2010Prop55
280
     0
102
RTVSPost2010PropOp55
 70
     1
102
RTVSPost2010Prop56
140
1.0
102
RTVSPost2010PropOp56
 70
     1
102
RTVSPost2010Prop57
140
1.0
102
RTVSPost2010PropOp57
 70
     1
  0
XRECORD
  5
3E1
102
{ACAD_REACTORS
330
3E0
102
}
330
3E0
100
AcDbXrecord
280
     1
102
RTVSPost2010Prop28
280
     0
102
RTVSPost2010PropOp28
 70
     0
102
RTVSPost2010Prop29
280
     1
102
RTVSPost2010PropOp29
 70
     0
102
RTVSPost2010Prop30
280
     1
102
RTVSPost2010PropOp30
 70
     0
102
RTVSPost2010Prop31
280
     0
102
RTVSPost2010PropOp31
 70
     0
102
RTVSPost2010Prop32
280
     0
102
RTVSPost2010PropOp32
 70
     0
102
RTVSPost2010Prop33
280
     0
102
RTVSPost2010PropOp33
 70
     0
102
RTVSPost2010Prop34
280
     0
102
RTVSPost2010PropOp34
 70
     0
102
RTVSPost2010Prop35
280
     0
102
RTVSPost2010PropOp35
 70
     0
102
RTVSPost2010Prop36
280
     0
102
RTVSPost2010PropOp36
 70
     0
102
RTVSPost2010Prop37
 90
       50
102
RTVSPost2010PropOp37
 70
     0
102
RTVSPost2010Prop38
140
0.0
102
RTVSPost2010PropOp38
 70
     0
102
RTVSPost2010Prop39
140
1.0
102
RTVSPost2010PropOp39
 70
     0
102
RTVSPost2010Prop40
 90
        0
102
RTVSPost2010PropOp40
 70
     0
102
RTVSPost2010Prop41ColorIndex
 90
       18
102
RTVSPost2010Prop41ColorRGB
 90
        0
102
RTVSPost2010PropOp41
 70
     0
102
RTVSPost2010Prop42
 90
       50
102
RTVSPost2010PropOp42
 70
     0
102
RTVSPost2010Prop43
 90
        3
102
RTVSPost2010PropOp43
 70
     0
102
RTVSPost2010Prop44ColorIndex
 90
        5
102
RTVSPost2010Prop44ColorRGB
 90
      255
102
RTVSPost2010PropOp44
 70
     0
102
RTVSPost2010Prop45
280
     0
102
RTVSPost2010PropOp45
 70
     0
102
RTVSPost2010Prop46
 90
       50
102
RTVSPost2010PropOp46
 70
     0
102
RTVSPost2010Prop47
 90
       50
102
RTVSPost2010PropOp47
 70
     0
102
RTVSPost2010Prop48
 90
       50
102
RTVSPost2010PropOp48
 70
     0
102
RTVSPost2010Prop49
280
     0
102
RTVSPost2010PropOp49
 70
     0
102
RTVSPost2010Prop50
 90
       50
102
RTVSPost2010PropOp50
 70
     0
102
RTVSPost2010Prop51ColorIndex
 90
      256
102
RTVSPost2010Prop51ColorRGB
 90
-16777216
102
RTVSPost2010PropOp51
 70
     0
102
RTVSPost2010Prop52
140
1.0
102
RTVSPost2010PropOp52
 70
     0
102
RTVSPost2010Prop53
 90
        2
102
RTVSPost2010PropOp53
 70
     0
102
RTVSPost2010Prop54
  1
strokes_ogs.tif
102
RTVSPost2010PropOp54
 70
     0
102
RTVSPost2010Prop55
280
     0
102
RTVSPost2010PropOp55
 70
     0
102
RTVSPost2010Prop56
140
1.0
102
RTVSPost2010PropOp56
 70
     0
102
RTVSPost2010Prop57
140
1.0
102
RTVSPost2010PropOp57
 70
     0
  0
XRECORD
  5
3CF
102
{ACAD_REACTORS
330
3CE
102
}
330
3CE
100
AcDbXrecord
280
     1
102
RTVSPost2010Prop28
280
     0
102
RTVSPost2010PropOp28
 70
     1
102
RTVSPost2010Prop29
280
     1
102
RTVSPost2010PropOp29
 70
     1
102
RTVSPost2010Prop30
280
     1
102
RTVSPost2010PropOp30
 70
     1
102
RTVSPost2010Prop31
280
     0
102
RTVSPost2010PropOp31
 70
     1
102
RTVSPost2010Prop32
280
     0
102
RTVSPost2010PropOp32
 70
     1
102
RTVSPost2010Prop33
280
     0
102
RTVSPost2010PropOp33
 70
     1
102
RTVSPost2010Prop34
280
     0
102
RTVSPost2010PropOp34
 70
     1
102
RTVSPost2010Prop35
280
     0
102
RTVSPost2010PropOp35
 70
     1
102
RTVSPost2010Prop36
280
     0
102
RTVSPost2010PropOp36
 70
     1
102
RTVSPost2010Prop37
 90
       50
102
RTVSPost2010PropOp37
 70
     1
102
RTVSPost2010Prop38
140
0.0
102
RTVSPost2010PropOp38
 70
     1
102
RTVSPost2010Prop39
140
1.0
102
RTVSPost2010PropOp39
 70
     1
102
RTVSPost2010Prop40
 90
        0
102
RTVSPost2010PropOp40
 70
     1
102
RTVSPost2010Prop41ColorIndex
 90
       18
102
RTVSPost2010Prop41ColorRGB
 90
        0
102
RTVSPost2010PropOp41
 70
     1
102
RTVSPost2010Prop42
 90
       50
102
RTVSPost2010PropOp42
 70
     1
102
RTVSPost2010Prop43
 90
        3
102
RTVSPost2010PropOp43
 70
     1
102
RTVSPost2010Prop44ColorIndex
 90
        5
102
RTVSPost2010Prop44ColorRGB
 90
      255
102
RTVSPost2010PropOp44
 70
     1
102
RTVSPost2010Prop45
280
     0
102
RTVSPost2010PropOp45
 70
     1
102
RTVSPost2010Prop46
 90
       50
102
RTVSPost2010PropOp46
 70
     1
102
RTVSPost2010Prop47
 90
       50
102
RTVSPost2010PropOp47
 70
     1
102
RTVSPost2010Prop48
 90
       50
102
RTVSPost2010PropOp48
 70
     1
102
RTVSPost2010Prop49
280
     0
102
RTVSPost2010PropOp49
 70
     1
102
RTVSPost2010Prop50
 90
       50
102
RTVSPost2010PropOp50
 70
     1
102
RTVSPost2010Prop51ColorIndex
 90
      256
102
RTVSPost2010Prop51ColorRGB
 90
-16777216
102
RTVSPost2010PropOp51
 70
     0
102
RTVSPost2010Prop52
140
1.0
102
RTVSPost2010PropOp52
 70
     0
102
RTVSPost2010Prop53
 90
        2
102
RTVSPost2010PropOp53
 70
     1
102
RTVSPost2010Prop54
  1
strokes_ogs.tif
102
RTVSPost2010PropOp54
 70
     1
102
RTVSPost2010Prop55
280
     0
102
RTVSPost2010PropOp55
 70
     1
102
RTVSPost2010Prop56
140
1.0
102
RTVSPost2010PropOp56
 70
     1
102
RTVSPost2010Prop57
140
1.0
102
RTVSPost2010PropOp57
 70
     1
  0
XRECORD
  5
3ED
102
{ACAD_REACTORS
330
3EC
102
}
330
3EC
100
AcDbXrecord
280
     1
102
RTVSPost2010Prop28
280
     0
102
RTVSPost2010PropOp28
 70
     1
102
RTVSPost2010Prop29
280
     1
102
RTVSPost2010PropOp29
 70
     1
102
RTVSPost2010Prop30
280
     1
102
RTVSPost2010PropOp30
 70
     1
102
RTVSPost2010Prop31
280
     0
102
RTVSPost2010PropOp31
 70
     1
102
RTVSPost2010Prop32
280
     0
102
RTVSPost2010PropOp32
 70
     1
102
RTVSPost2010Prop33
280
     0
102
RTVSPost2010PropOp33
 70
     1
102
RTVSPost2010Prop34
280
     0
102
RTVSPost2010PropOp34
 70
     1
102
RTVSPost2010Prop35
280
     0
102
RTVSPost2010PropOp35
 70
     1
102
RTVSPost2010Prop36
280
     0
102
RTVSPost2010PropOp36
 70
     1
102
RTVSPost2010Prop37
 90
       50
102
RTVSPost2010PropOp37
 70
     1
102
RTVSPost2010Prop38
140
0.0
102
RTVSPost2010PropOp38
 70
     1
102
RTVSPost2010Prop39
140
1.0
102
RTVSPost2010PropOp39
 70
     1
102
RTVSPost2010Prop40
 90
        0
102
RTVSPost2010PropOp40
 70
     1
102
RTVSPost2010Prop41ColorIndex
 90
       18
102
RTVSPost2010Prop41ColorRGB
 90
        0
102
RTVSPost2010PropOp41
 70
     1
102
RTVSPost2010Prop42
 90
       50
102
RTVSPost2010PropOp42
 70
     1
102
RTVSPost2010Prop43
 90
        3
102
RTVSPost2010PropOp43
 70
     1
102
RTVSPost2010Prop44ColorIndex
 90
        5
102
RTVSPost2010Prop44ColorRGB
 90
      255
102
RTVSPost2010PropOp44
 70
     1
102
RTVSPost2010Prop45
280
     0
102
RTVSPost2010PropOp45
 70
     1
102
RTVSPost2010Prop46
 90
       50
102
RTVSPost2010PropOp46
 70
     1
102
RTVSPost2010Prop47
 90
       50
102
RTVSPost2010PropOp47
 70
     1
102
RTVSPost2010Prop48
 90
       50
102
RTVSPost2010PropOp48
 70
     1
102
RTVSPost2010Prop49
280
     0
102
RTVSPost2010PropOp49
 70
     1
102
RTVSPost2010Prop50
 90
       50
102
RTVSPost2010PropOp50
 70
     1
102
RTVSPost2010Prop51ColorIndex
 90
      256
102
RTVSPost2010Prop51ColorRGB
 90
-16777216
102
RTVSPost2010PropOp51
 70
     0
102
RTVSPost2010Prop52
140
1.0
102
RTVSPost2010PropOp52
 70
     0
102
RTVSPost2010Prop53
 90
        2
102
RTVSPost2010PropOp53
 70
     1
102
RTVSPost2010Prop54
  1
strokes_ogs.tif
102
RTVSPost2010PropOp54
 70
     1
102
RTVSPost2010Prop55
280
     0
102
RTVSPost2010PropOp55
 70
     1
102
RTVSPost2010Prop56
140
1.0
102
RTVSPost2010PropOp56
 70
     1
102
RTVSPost2010Prop57
140
1.0
102
RTVSPost2010PropOp57
 70
     1
  0
XRECORD
  5
3EB
102
{ACAD_REACTORS
330
3EA
102
}
330
3EA
100
AcDbXrecord
280
     1
102
RTVSPost2010Prop28
280
     0
102
RTVSPost2010PropOp28
 70
     1
102
RTVSPost2010Prop29
280
     1
102
RTVSPost2010PropOp29
 70
     1
102
RTVSPost2010Prop30
280
     1
102
RTVSPost2010PropOp30
 70
     1
102
RTVSPost2010Prop31
280
     0
102
RTVSPost2010PropOp31
 70
     1
102
RTVSPost2010Prop32
280
     0
102
RTVSPost2010PropOp32
 70
     1
102
RTVSPost2010Prop33
280
     0
102
RTVSPost2010PropOp33
 70
     1
102
RTVSPost2010Prop34
280
     0
102
RTVSPost2010PropOp34
 70
     1
102
RTVSPost2010Prop35
280
     0
102
RTVSPost2010PropOp35
 70
     1
102
RTVSPost2010Prop36
280
     0
102
RTVSPost2010PropOp36
 70
     1
102
RTVSPost2010Prop37
 90
       50
102
RTVSPost2010PropOp37
 70
     1
102
RTVSPost2010Prop38
140
0.0
102
RTVSPost2010PropOp38
 70
     1
102
RTVSPost2010Prop39
140
1.0
102
RTVSPost2010PropOp39
 70
     1
102
RTVSPost2010Prop40
 90
        0
102
RTVSPost2010PropOp40
 70
     1
102
RTVSPost2010Prop41ColorIndex
 90
       18
102
RTVSPost2010Prop41ColorRGB
 90
        0
102
RTVSPost2010PropOp41
 70
     1
102
RTVSPost2010Prop42
 90
       50
102
RTVSPost2010PropOp42
 70
     1
102
RTVSPost2010Prop43
 90
        3
102
RTVSPost2010PropOp43
 70
     1
102
RTVSPost2010Prop44ColorIndex
 90
        5
102
RTVSPost2010Prop44ColorRGB
 90
      255
102
RTVSPost2010PropOp44
 70
     1
102
RTVSPost2010Prop45
280
     0
102
RTVSPost2010PropOp45
 70
     1
102
RTVSPost2010Prop46
 90
       50
102
RTVSPost2010PropOp46
 70
     1
102
RTVSPost2010Prop47
 90
       50
102
RTVSPost2010PropOp47
 70
     1
102
RTVSPost2010Prop48
 90
       50
102
RTVSPost2010PropOp48
 70
     1
102
RTVSPost2010Prop49
280
     0
102
RTVSPost2010PropOp49
 70
     1
102
RTVSPost2010Prop50
 90
       50
102
RTVSPost2010PropOp50
 70
     1
102
RTVSPost2010Prop51ColorIndex
 90
      256
102
RTVSPost2010Prop51ColorRGB
 90
-16777216
102
RTVSPost2010PropOp51
 70
     0
102
RTVSPost2010Prop52
140
1.0
102
RTVSPost2010PropOp52
 70
     0
102
RTVSPost2010Prop53
 90
        2
102
RTVSPost2010PropOp53
 70
     1
102
RTVSPost2010Prop54
  1
strokes_ogs.tif
102
RTVSPost2010PropOp54
 70
     1
102
RTVSPost2010Prop55
280
     0
102
RTVSPost2010PropOp55
 70
     1
102
RTVSPost2010Prop56
140
1.0
102
RTVSPost2010PropOp56
 70
     1
102
RTVSPost2010Prop57
140
1.0
102
RTVSPost2010PropOp57
 70
     1
  0
XRECORD
  5
3E5
102
{ACAD_REACTORS
330
3E4
102
}
330
3E4
100
AcDbXrecord
280
     1
102
RTVSPost2010Prop28
280
     0
102
RTVSPost2010PropOp28
 70
     1
102
RTVSPost2010Prop29
280
     1
102
RTVSPost2010PropOp29
 70
     1
102
RTVSPost2010Prop30
280
     1
102
RTVSPost2010PropOp30
 70
     1
102
RTVSPost2010Prop31
280
     0
102
RTVSPost2010PropOp31
 70
     1
102
RTVSPost2010Prop32
280
     0
102
RTVSPost2010PropOp32
 70
     1
102
RTVSPost2010Prop33
280
     0
102
RTVSPost2010PropOp33
 70
     1
102
RTVSPost2010Prop34
280
     0
102
RTVSPost2010PropOp34
 70
     1
102
RTVSPost2010Prop35
280
     0
102
RTVSPost2010PropOp35
 70
     1
102
RTVSPost2010Prop36
280
     0
102
RTVSPost2010PropOp36
 70
     1
102
RTVSPost2010Prop37
 90
       50
102
RTVSPost2010PropOp37
 70
     1
102
RTVSPost2010Prop38
140
0.0
102
RTVSPost2010PropOp38
 70
     1
102
RTVSPost2010Prop39
140
1.0
102
RTVSPost2010PropOp39
 70
     1
102
RTVSPost2010Prop40
 90
        0
102
RTVSPost2010PropOp40
 70
     1
102
RTVSPost2010Prop41ColorIndex
 90
       18
102
RTVSPost2010Prop41ColorRGB
 90
        0
102
RTVSPost2010PropOp41
 70
     1
102
RTVSPost2010Prop42
 90
       50
102
RTVSPost2010PropOp42
 70
     1
102
RTVSPost2010Prop43
 90
        3
102
RTVSPost2010PropOp43
 70
     1
102
RTVSPost2010Prop44ColorIndex
 90
        5
102
RTVSPost2010Prop44ColorRGB
 90
      255
102
RTVSPost2010PropOp44
 70
     1
102
RTVSPost2010Prop45
280
     0
102
RTVSPost2010PropOp45
 70
     1
102
RTVSPost2010Prop46
 90
       50
102
RTVSPost2010PropOp46
 70
     1
102
RTVSPost2010Prop47
 90
       50
102
RTVSPost2010PropOp47
 70
     1
102
RTVSPost2010Prop48
 90
       50
102
RTVSPost2010PropOp48
 70
     1
102
RTVSPost2010Prop49
280
     0
102
RTVSPost2010PropOp49
 70
     1
102
RTVSPost2010Prop50
 90
       50
102
RTVSPost2010PropOp50
 70
     1
102
RTVSPost2010Prop51ColorIndex
 90
      256
102
RTVSPost2010Prop51ColorRGB
 90
-16777216
102
RTVSPost2010PropOp51
 70
     0
102
RTVSPost2010Prop52
140
1.0
102
RTVSPost2010PropOp52
 70
     0
102
RTVSPost2010Prop53
 90
        2
102
RTVSPost2010PropOp53
 70
     1
102
RTVSPost2010Prop54
  1
strokes_ogs.tif
102
RTVSPost2010PropOp54
 70
     1
102
RTVSPost2010Prop55
280
     0
102
RTVSPost2010PropOp55
 70
     1
102
RTVSPost2010Prop56
140
1.0
102
RTVSPost2010PropOp56
 70
     1
102
RTVSPost2010Prop57
140
1.0
102
RTVSPost2010PropOp57
 70
     1
  0
XRECORD
  5
3E7
102
{ACAD_REACTORS
330
3E6
102
}
330
3E6
100
AcDbXrecord
280
     1
102
RTVSPost2010Prop28
280
     0
102
RTVSPost2010PropOp28
 70
     1
102
RTVSPost2010Prop29
280
     1
102
RTVSPost2010PropOp29
 70
     1
102
RTVSPost2010Prop30
280
     1
102
RTVSPost2010PropOp30
 70
     1
102
RTVSPost2010Prop31
280
     0
102
RTVSPost2010PropOp31
 70
     1
102
RTVSPost2010Prop32
280
     0
102
RTVSPost2010PropOp32
 70
     1
102
RTVSPost2010Prop33
280
     0
102
RTVSPost2010PropOp33
 70
     1
102
RTVSPost2010Prop34
280
     0
102
RTVSPost2010PropOp34
 70
     1
102
RTVSPost2010Prop35
280
     0
102
RTVSPost2010PropOp35
 70
     1
102
RTVSPost2010Prop36
280
     0
102
RTVSPost2010PropOp36
 70
     1
102
RTVSPost2010Prop37
 90
       50
102
RTVSPost2010PropOp37
 70
     1
102
RTVSPost2010Prop38
140
0.0
102
RTVSPost2010PropOp38
 70
     1
102
RTVSPost2010Prop39
140
1.0
102
RTVSPost2010PropOp39
 70
     1
102
RTVSPost2010Prop40
 90
        0
102
RTVSPost2010PropOp40
 70
     1
102
RTVSPost2010Prop41ColorIndex
 90
       18
102
RTVSPost2010Prop41ColorRGB
 90
        0
102
RTVSPost2010PropOp41
 70
     1
102
RTVSPost2010Prop42
 90
       50
102
RTVSPost2010PropOp42
 70
     1
102
RTVSPost2010Prop43
 90
        3
102
RTVSPost2010PropOp43
 70
     1
102
RTVSPost2010Prop44ColorIndex
 90
        5
102
RTVSPost2010Prop44ColorRGB
 90
      255
102
RTVSPost2010PropOp44
 70
     1
102
RTVSPost2010Prop45
280
     0
102
RTVSPost2010PropOp45
 70
     1
102
RTVSPost2010Prop46
 90
       50
102
RTVSPost2010PropOp46
 70
     1
102
RTVSPost2010Prop47
 90
       50
102
RTVSPost2010PropOp47
 70
     1
102
RTVSPost2010Prop48
 90
       50
102
RTVSPost2010PropOp48
 70
     1
102
RTVSPost2010Prop49
280
     0
102
RTVSPost2010PropOp49
 70
     1
102
RTVSPost2010Prop50
 90
       50
102
RTVSPost2010PropOp50
 70
     1
102
RTVSPost2010Prop51ColorIndex
 90
      256
102
RTVSPost2010Prop51ColorRGB
 90
-16777216
102
RTVSPost2010PropOp51
 70
     0
102
RTVSPost2010Prop52
140
1.0
102
RTVSPost2010PropOp52
 70
     0
102
RTVSPost2010Prop53
 90
        2
102
RTVSPost2010PropOp53
 70
     1
102
RTVSPost2010Prop54
  1
strokes_ogs.tif
102
RTVSPost2010PropOp54
 70
     1
102
RTVSPost2010Prop55
280
     0
102
RTVSPost2010PropOp55
 70
     1
102
RTVSPost2010Prop56
140
1.0
102
RTVSPost2010PropOp56
 70
     1
102
RTVSPost2010Prop57
140
1.0
102
RTVSPost2010PropOp57
 70
     1
  0
XRECORD
  5
3D7
102
{ACAD_REACTORS
330
3D6
102
}
330
3D6
100
AcDbXrecord
280
     1
102
RTVSPost2010Prop28
280
     0
102
RTVSPost2010PropOp28
 70
     1
102
RTVSPost2010Prop29
280
     1
102
RTVSPost2010PropOp29
 70
     1
102
RTVSPost2010Prop30
280
     1
102
RTVSPost2010PropOp30
 70
     1
102
RTVSPost2010Prop31
280
     0
102
RTVSPost2010PropOp31
 70
     1
102
RTVSPost2010Prop32
280
     0
102
RTVSPost2010PropOp32
 70
     1
102
RTVSPost2010Prop33
280
     0
102
RTVSPost2010PropOp33
 70
     1
102
RTVSPost2010Prop34
280
     0
102
RTVSPost2010PropOp34
 70
     1
102
RTVSPost2010Prop35
280
     0
102
RTVSPost2010PropOp35
 70
     1
102
RTVSPost2010Prop36
280
     0
102
RTVSPost2010PropOp36
 70
     1
102
RTVSPost2010Prop37
 90
       50
102
RTVSPost2010PropOp37
 70
     1
102
RTVSPost2010Prop38
140
0.0
102
RTVSPost2010PropOp38
 70
     1
102
RTVSPost2010Prop39
140
1.0
102
RTVSPost2010PropOp39
 70
     1
102
RTVSPost2010Prop40
 90
        0
102
RTVSPost2010PropOp40
 70
     1
102
RTVSPost2010Prop41ColorIndex
 90
       18
102
RTVSPost2010Prop41ColorRGB
 90
        0
102
RTVSPost2010PropOp41
 70
     1
102
RTVSPost2010Prop42
 90
       50
102
RTVSPost2010PropOp42
 70
     1
102
RTVSPost2010Prop43
 90
        3
102
RTVSPost2010PropOp43
 70
     1
102
RTVSPost2010Prop44ColorIndex
 90
        5
102
RTVSPost2010Prop44ColorRGB
 90
      255
102
RTVSPost2010PropOp44
 70
     1
102
RTVSPost2010Prop45
280
     0
102
RTVSPost2010PropOp45
 70
     1
102
RTVSPost2010Prop46
 90
       50
102
RTVSPost2010PropOp46
 70
     1
102
RTVSPost2010Prop47
 90
       50
102
RTVSPost2010PropOp47
 70
     1
102
RTVSPost2010Prop48
 90
       50
102
RTVSPost2010PropOp48
 70
     1
102
RTVSPost2010Prop49
280
     0
102
RTVSPost2010PropOp49
 70
     1
102
RTVSPost2010Prop50
 90
       50
102
RTVSPost2010PropOp50
 70
     1
102
RTVSPost2010Prop51ColorIndex
 90
      256
102
RTVSPost2010Prop51ColorRGB
 90
-16777216
102
RTVSPost2010PropOp51
 70
     0
102
RTVSPost2010Prop52
140
1.0
102
RTVSPost2010PropOp52
 70
     0
102
RTVSPost2010Prop53
 90
        2
102
RTVSPost2010PropOp53
 70
     1
102
RTVSPost2010Prop54
  1
strokes_ogs.tif
102
RTVSPost2010PropOp54
 70
     1
102
RTVSPost2010Prop55
280
     0
102
RTVSPost2010PropOp55
 70
     1
102
RTVSPost2010Prop56
140
1.0
102
RTVSPost2010PropOp56
 70
     1
102
RTVSPost2010Prop57
140
1.0
102
RTVSPost2010PropOp57
 70
     1
  0
XRECORD
  5
3C9
102
{ACAD_REACTORS
330
3C8
102
}
330
3C8
100
AcDbXrecord
280
     1
102
RTVSPost2010Prop28
280
     0
102
RTVSPost2010PropOp28
 70
     1
102
RTVSPost2010Prop29
280
     1
102
RTVSPost2010PropOp29
 70
     1
102
RTVSPost2010Prop30
280
     1
102
RTVSPost2010PropOp30
 70
     1
102
RTVSPost2010Prop31
280
     0
102
RTVSPost2010PropOp31
 70
     1
102
RTVSPost2010Prop32
280
     0
102
RTVSPost2010PropOp32
 70
     1
102
RTVSPost2010Prop33
280
     0
102
RTVSPost2010PropOp33
 70
     1
102
RTVSPost2010Prop34
280
     0
102
RTVSPost2010PropOp34
 70
     1
102
RTVSPost2010Prop35
280
     0
102
RTVSPost2010PropOp35
 70
     1
102
RTVSPost2010Prop36
280
     0
102
RTVSPost2010PropOp36
 70
     1
102
RTVSPost2010Prop37
 90
       50
102
RTVSPost2010PropOp37
 70
     1
102
RTVSPost2010Prop38
140
0.0
102
RTVSPost2010PropOp38
 70
     1
102
RTVSPost2010Prop39
140
1.0
102
RTVSPost2010PropOp39
 70
     1
102
RTVSPost2010Prop40
 90
        0
102
RTVSPost2010PropOp40
 70
     1
102
RTVSPost2010Prop41ColorIndex
 90
       18
102
RTVSPost2010Prop41ColorRGB
 90
        0
102
RTVSPost2010PropOp41
 70
     1
102
RTVSPost2010Prop42
 90
       50
102
RTVSPost2010PropOp42
 70
     1
102
RTVSPost2010Prop43
 90
        3
102
RTVSPost2010PropOp43
 70
     1
102
RTVSPost2010Prop44ColorIndex
 90
        5
102
RTVSPost2010Prop44ColorRGB
 90
      255
102
RTVSPost2010PropOp44
 70
     1
102
RTVSPost2010Prop45
280
     0
102
RTVSPost2010PropOp45
 70
     1
102
RTVSPost2010Prop46
 90
       50
102
RTVSPost2010PropOp46
 70
     1
102
RTVSPost2010Prop47
 90
       50
102
RTVSPost2010PropOp47
 70
     1
102
RTVSPost2010Prop48
 90
       50
102
RTVSPost2010PropOp48
 70
     1
102
RTVSPost2010Prop49
280
     0
102
RTVSPost2010PropOp49
 70
     1
102
RTVSPost2010Prop50
 90
       50
102
RTVSPost2010PropOp50
 70
     1
102
RTVSPost2010Prop51ColorIndex
 90
      256
102
RTVSPost2010Prop51ColorRGB
 90
-16777216
102
RTVSPost2010PropOp51
 70
     0
102
RTVSPost2010Prop52
140
1.0
102
RTVSPost2010PropOp52
 70
     0
102
RTVSPost2010Prop53
 90
        2
102
RTVSPost2010PropOp53
 70
     1
102
RTVSPost2010Prop54
  1
strokes_ogs.tif
102
RTVSPost2010PropOp54
 70
     1
102
RTVSPost2010Prop55
280
     0
102
RTVSPost2010PropOp55
 70
     1
102
RTVSPost2010Prop56
140
1.0
102
RTVSPost2010PropOp56
 70
     1
102
RTVSPost2010Prop57
140
1.0
102
RTVSPost2010PropOp57
 70
     1
  0
XRECORD
  5
3E9
102
{ACAD_REACTORS
330
3E8
102
}
330
3E8
100
AcDbXrecord
280
     1
102
RTVSPost2010Prop28
280
     0
102
RTVSPost2010PropOp28
 70
     1
102
RTVSPost2010Prop29
280
     1
102
RTVSPost2010PropOp29
 70
     1
102
RTVSPost2010Prop30
280
     1
102
RTVSPost2010PropOp30
 70
     1
102
RTVSPost2010Prop31
280
     0
102
RTVSPost2010PropOp31
 70
     1
102
RTVSPost2010Prop32
280
     0
102
RTVSPost2010PropOp32
 70
     1
102
RTVSPost2010Prop33
280
     0
102
RTVSPost2010PropOp33
 70
     1
102
RTVSPost2010Prop34
280
     0
102
RTVSPost2010PropOp34
 70
     1
102
RTVSPost2010Prop35
280
     0
102
RTVSPost2010PropOp35
 70
     1
102
RTVSPost2010Prop36
280
     0
102
RTVSPost2010PropOp36
 70
     1
102
RTVSPost2010Prop37
 90
       50
102
RTVSPost2010PropOp37
 70
     1
102
RTVSPost2010Prop38
140
0.0
102
RTVSPost2010PropOp38
 70
     1
102
RTVSPost2010Prop39
140
1.0
102
RTVSPost2010PropOp39
 70
     1
102
RTVSPost2010Prop40
 90
        0
102
RTVSPost2010PropOp40
 70
     1
102
RTVSPost2010Prop41ColorIndex
 90
       18
102
RTVSPost2010Prop41ColorRGB
 90
        0
102
RTVSPost2010PropOp41
 70
     1
102
RTVSPost2010Prop42
 90
       50
102
RTVSPost2010PropOp42
 70
     1
102
RTVSPost2010Prop43
 90
        3
102
RTVSPost2010PropOp43
 70
     1
102
RTVSPost2010Prop44ColorIndex
 90
        5
102
RTVSPost2010Prop44ColorRGB
 90
      255
102
RTVSPost2010PropOp44
 70
     1
102
RTVSPost2010Prop45
280
     0
102
RTVSPost2010PropOp45
 70
     1
102
RTVSPost2010Prop46
 90
       50
102
RTVSPost2010PropOp46
 70
     1
102
RTVSPost2010Prop47
 90
       50
102
RTVSPost2010PropOp47
 70
     1
102
RTVSPost2010Prop48
 90
       50
102
RTVSPost2010PropOp48
 70
     1
102
RTVSPost2010Prop49
280
     0
102
RTVSPost2010PropOp49
 70
     1
102
RTVSPost2010Prop50
 90
       50
102
RTVSPost2010PropOp50
 70
     1
102
RTVSPost2010Prop51ColorIndex
 90
      256
102
RTVSPost2010Prop51ColorRGB
 90
-16777216
102
RTVSPost2010PropOp51
 70
     0
102
RTVSPost2010Prop52
140
1.0
102
RTVSPost2010PropOp52
 70
     0
102
RTVSPost2010Prop53
 90
        2
102
RTVSPost2010PropOp53
 70
     1
102
RTVSPost2010Prop54
  1
strokes_ogs.tif
102
RTVSPost2010PropOp54
 70
     1
102
RTVSPost2010Prop55
280
     0
102
RTVSPost2010PropOp55
 70
     1
102
RTVSPost2010Prop56
140
1.0
102
RTVSPost2010PropOp56
 70
     1
102
RTVSPost2010Prop57
140
1.0
102
RTVSPost2010PropOp57
 70
     1
  0
ENDSEC
  0
EOF
