  0
SECTION
  2
HEADER
  9
$ACADVER
  1
AC1024
  9
$ACADMAINTVER
 70
     6
  9
$DWGCODEPAGE
  3
ANSI_1252
  9
$INSBASE
 10
0.0
 20
0.0
 30
0.0
  9
$EXTMIN
 10
1.000000E+20
 20
1.000000E+20
 30
1.000000E+20
  9
$EXTMAX
 10
-1.000000E+20
 20
-1.000000E+20
 30
-1.000000E+20
  9
$LIMMIN
 10
0.0
 20
0.0
  9
$LIMMAX
 10
420.0
 20
297.0
  9
$ORTHOMODE
 70
     0
  9
$REGENMODE
 70
     1
  9
$FILLMODE
 70
     1
  9
$QTEXTMODE
 70
     0
  9
$MIRRTEXT
 70
     1
  9
$LTSCALE
 40
1.0
  9
$ATTMODE
 70
     1
  9
$TEXTSIZE
 40
2.5
  9
$TRACEWID
 40
1.0
  9
$TEXTSTYLE
  7
Standard
  9
$CLAYER
  8
0
  9
$CELTYPE
  6
ByLayer
  9
$CECOLOR
 62
   256
  9
$CELTSCALE
 40
1.0
  9
$DISPSILH
 70
     0
  9
$DIMSCALE
 40
1.0
  9
$DIMASZ
 40
2.5
  9
$DIMEXO
 40
0.625
  9
$DIMDLI
 40
3.75
  9
$DIMRND
 40
0.0
  9
$DIMDLE
 40
0.0
  9
$DIMEXE
 40
1.25
  9
$DIMTP
 40
0.0
  9
$DIMTM
 40
0.0
  9
$DIMTXT
 40
2.5
  9
$DIMCEN
 40
2.5
  9
$DIMTSZ
 40
0.0
  9
$DIMTOL
 70
     0
  9
$DIMLIM
 70
     0
  9
$DIMTIH
 70
     0
  9
$DIMTOH
 70
     0
  9
$DIMSE1
 70
     0
  9
$DIMSE2
 70
     0
  9
$DIMTAD
 70
     1
  9
$DIMZIN
 70
     8
  9
$DIMBLK
  1

  9
$DIMASO
 70
     1
  9
$DIMSHO
 70
     1
  9
$DIMPOST
  1

  9
$DIMAPOST
  1

  9
$DIMALT
 70
     0
  9
$DIMALTD
 70
     3
  9
$DIMALTF
 40
0.03937
  9
$DIMLFAC
 40
1.0
  9
$DIMTOFL
 70
     1
  9
$DIMTVP
 40
0.0
  9
$DIMTIX
 70
     0
  9
$DIMSOXD
 70
     0
  9
$DIMSAH
 70
     0
  9
$DIMBLK1
  1

  9
$DIMBLK2
  1

  9
$DIMSTYLE
  2
ISO-25
  9
$DIMCLRD
 70
     0
  9
$DIMCLRE
 70
     0
  9
$DIMCLRT
 70
     0
  9
$DIMTFAC
 40
1.0
  9
$DIMGAP
 40
0.625
  9
$DIMJUST
 70
     0
  9
$DIMSD1
 70
     0
  9
$DIMSD2
 70
     0
  9
$DIMTOLJ
 70
     0
  9
$DIMTZIN
 70
     8
  9
$DIMALTZ
 70
     0
  9
$DIMALTTZ
 70
     0
  9
$DIMUPT
 70
     0
  9
$DIMDEC
 70
     2
  9
$DIMTDEC
 70
     2
  9
$DIMALTU
 70
     2
  9
$DIMALTTD
 70
     3
  9
$DIMTXSTY
  7
Standard
  9
$DIMAUNIT
 70
     0
  9
$DIMADEC
 70
     0
  9
$DIMALTRND
 40
0.0
  9
$DIMAZIN
 70
     0
  9
$DIMDSEP
 70
    44
  9
$DIMATFIT
 70
     3
  9
$DIMFRAC
 70
     0
  9
$DIMLDRBLK
  1

  9
$DIMLUNIT
 70
     2
  9
$DIMLWD
 70
    -2
  9
$DIMLWE
 70
    -2
  9
$DIMTMOVE
 70
     0
  9
$DIMFXL
 40
1.0
  9
$DIMFXLON
 70
     0
  9
$DIMJOGANG
 40
0.785398
  9
$DIMTFILL
 70
     0
  9
$DIMTFILLCLR
 70
     0
  9
$DIMARCSYM
 70
     0
  9
$DIMLTYPE
  6

  9
$DIMLTEX1
  6

  9
$DIMLTEX2
  6

  9
$DIMTXTDIRECTION
 70
     0
  9
$LUNITS
 70
     2
  9
$LUPREC
 70
     4
  9
$SKETCHINC
 40
1.0
  9
$FILLETRAD
 40
10.0
  9
$AUNITS
 70
     0
  9
$AUPREC
 70
     0
  9
$MENU
  1
.
  9
$ELEVATION
 40
0.0
  9
$PELEVATION
 40
0.0
  9
$THICKNESS
 40
0.0
  9
$LIMCHECK
 70
     0
  9
$CHAMFERA
 40
0.0
  9
$CHAMFERB
 40
0.0
  9
$CHAMFERC
 40
0.0
  9
$CHAMFERD
 40
0.0
  9
$SKPOLY
 70
     0
  9
$TDCREATE
 40
2458662.425394224
  9
$TDUCREATE
 40
2458662.342060891
  9
$TDUPDATE
 40
2458662.425395127
  9
$TDUUPDATE
 40
2458662.342061794
  9
$TDINDWG
 40
0.0000000116
  9
$TDUSRTIMER
 40
0.0000000116
  9
$USRTIMER
 70
     1
  9
$ANGBASE
 50
0.0
  9
$ANGDIR
 70
     0
  9
$PDMODE
 70
     0
  9
$PDSIZE
 40
0.0
  9
$PLINEWID
 40
0.0
  9
$SPLFRAME
 70
     0
  9
$SPLINETYPE
 70
     6
  9
$SPLINESEGS
 70
     8
  9
$HANDSEED
  5
407
  9
$SURFTAB1
 70
     6
  9
$SURFTAB2
 70
     6
  9
$SURFTYPE
 70
     6
  9
$SURFU
 70
     6
  9
$SURFV
 70
     6
  9
$UCSBASE
  2

  9
$UCSNAME
  2

  9
$UCSORG
 10
0.0
 20
0.0
 30
0.0
  9
$UCSXDIR
 10
1.0
 20
0.0
 30
0.0
  9
$UCSYDIR
 10
0.0
 20
1.0
 30
0.0
  9
$UCSORTHOREF
  2

  9
$UCSORTHOVIEW
 70
     0
  9
$UCSORGTOP
 10
0.0
 20
0.0
 30
0.0
  9
$UCSORGBOTTOM
 10
0.0
 20
0.0
 30
0.0
  9
$UCSORGLEFT
 10
0.0
 20
0.0
 30
0.0
  9
$UCSORGRIGHT
 10
0.0
 20
0.0
 30
0.0
  9
$UCSORGFRONT
 10
0.0
 20
0.0
 30
0.0
  9
$UCSORGBACK
 10
0.0
 20
0.0
 30
0.0
  9
$PUCSBASE
  2

  9
$PUCSNAME
  2

  9
$PUCSORG
 10
0.0
 20
0.0
 30
0.0
  9
$PUCSXDIR
 10
1.0
 20
0.0
 30
0.0
  9
$PUCSYDIR
 10
0.0
 20
1.0
 30
0.0
  9
$PUCSORTHOREF
  2

  9
$PUCSORTHOVIEW
 70
     0
  9
$PUCSORGTOP
 10
0.0
 20
0.0
 30
0.0
  9
$PUCSORGBOTTOM
 10
0.0
 20
0.0
 30
0.0
  9
$PUCSORGLEFT
 10
0.0
 20
0.0
 30
0.0
  9
$PUCSORGRIGHT
 10
0.0
 20
0.0
 30
0.0
  9
$PUCSORGFRONT
 10
0.0
 20
0.0
 30
0.0
  9
$PUCSORGBACK
 10
0.0
 20
0.0
 30
0.0
  9
$USERI1
 70
     0
  9
$USERI2
 70
     0
  9
$USERI3
 70
     0
  9
$USERI4
 70
     0
  9
$USERI5
 70
     0
  9
$USERR1
 40
0.0
  9
$USERR2
 40
0.0
  9
$USERR3
 40
0.0
  9
$USERR4
 40
0.0
  9
$USERR5
 40
0.0
  9
$WORLDVIEW
 70
     1
  9
$SHADEDGE
 70
     3
  9
$SHADEDIF
 70
    70
  9
$TILEMODE
 70
     1
  9
$MAXACTVP
 70
    64
  9
$PINSBASE
 10
0.0
 20
0.0
 30
0.0
  9
$PLIMCHECK
 70
     0
  9
$PEXTMIN
 10
1.000000E+20
 20
1.000000E+20
 30
1.000000E+20
  9
$PEXTMAX
 10
-1.000000E+20
 20
-1.000000E+20
 30
-1.000000E+20
  9
$PLIMMIN
 10
0.0
 20
0.0
  9
$PLIMMAX
 10
420.0
 20
297.0
  9
$UNITMODE
 70
     0
  9
$VISRETAIN
 70
     1
  9
$PLINEGEN
 70
     0
  9
$PSLTSCALE
 70
     1
  9
$TREEDEPTH
 70
  3020
  9
$CMLSTYLE
  2
Standard
  9
$CMLJUST
 70
     0
  9
$CMLSCALE
 40
20.0
  9
$PROXYGRAPHICS
 70
     1
  9
$MEASUREMENT
 70
     1
  9
$CELWEIGHT
370
    -1
  9
$ENDCAPS
280
     0
  9
$JOINSTYLE
280
     0
  9
$LWDISPLAY
290
     0
  9
$INSUNITS
 70
     4
  9
$HYPERLINKBASE
  1

  9
$STYLESHEET
  1

  9
$XEDIT
290
     1
  9
$CEPSNTYPE
380
     0
  9
$PSTYLEMODE
290
     1
  9
$FINGERPRINTGUID
  2
{C30F0D80-E902-43E7-A06F-050758C79EE4}
  9
$VERSIONGUID
  2
{FAEB1C32-E019-11D5-929B-00C0DF256EC4}
  9
$EXTNAMES
290
     1
  9
$PSVPSCALE
 40
0.0
  9
$OLESTARTUP
290
     0
  9
$SORTENTS
280
   127
  9
$INDEXCTL
280
     0
  9
$HIDETEXT
280
     1
  9
$XCLIPFRAME
280
     2
  9
$HALOGAP
280
     0
  9
$OBSCOLOR
 70
   257
  9
$OBSLTYPE
280
     0
  9
$INTERSECTIONDISPLAY
280
     0
  9
$INTERSECTIONCOLOR
 70
   257
  9
$DIMASSOC
280
     2
  9
$PROJECTNAME
  1

  9
$CAMERADISPLAY
290
     0
  9
$LENSLENGTH
 40
50.0
  9
$CAMERAHEIGHT
 40
0.0
  9
$STEPSPERSEC
 40
2.0
  9
$STEPSIZE
 40
6.0
  9
$3DDWFPREC
 40
2.0
  9
$PSOLWIDTH
 40
5.0
  9
$PSOLHEIGHT
 40
80.0
  9
$LOFTANG1
 40
1.570796
  9
$LOFTANG2
 40
1.570796
  9
$LOFTMAG1
 40
0.0
  9
$LOFTMAG2
 40
0.0
  9
$LOFTPARAM
 70
     7
  9
$LOFTNORMALS
280
     1
  9
$LATITUDE
 40
37.795
  9
$LONGITUDE
 40
-122.394
  9
$NORTHDIRECTION
 40
0.0
  9
$TIMEZONE
 70
 -8000
  9
$LIGHTGLYPHDISPLAY
280
     1
  9
$TILEMODELIGHTSYNCH
280
     1
  9
$CMATERIAL
347
44
  9
$SOLIDHIST
280
     0
  9
$SHOWHIST
280
     1
  9
$DWFFRAME
280
     2
  9
$DGNFRAME
280
     2
  9
$REALWORLDSCALE
290
     1
  9
$INTERFERECOLOR
 62
   256
  9
$CSHADOW
280
     0
  9
$SHADOWPLANELOCATION
 40
0.0
  0
ENDSEC
  0
SECTION
  2
CLASSES
  0
CLASS
  1
ACDBDICTIONARYWDFLT
  2
AcDbDictionaryWithDefault
  3
ObjectDBX Classes
 90
        0
 91
        4
280
     0
281
     0
  0
CLASS
  1
VISUALSTYLE
  2
AcDbVisualStyle
  3
ObjectDBX Classes
 90
     4095
 91
        4
280
     0
281
     0
  0
CLASS
  1
MATERIAL
  2
AcDbMaterial
  3
ObjectDBX Classes
 90
     1153
 91
        4
280
     0
281
     0
  0
CLASS
  1
SCALE
  2
AcDbScale
  3
ObjectDBX Classes
 90
     1153
 91
        4
280
     0
281
     0
  0
CLASS
  1
TABLESTYLE
  2
AcDbTableStyle
  3
ObjectDBX Classes
 90
     4095
 91
        4
280
     0
281
     0
  0
CLASS
  1
MLEADERSTYLE
  2
AcDbMLeaderStyle
  3
ACDB_MLEADERSTYLE_CLASS
 90
     4095
 91
        4
280
     0
281
     0
  0
CLASS
  1
SUN
  2
AcDbSun
  3
SCENEOE
 90
     1153
 91
        4
280
     0
281
     0
  0
CLASS
  1
DICTIONARYVAR
  2
AcDbDictionaryVar
  3
ObjectDBX Classes
 90
        0
 91
        4
280
     0
281
     0
  0
CLASS
  1
CELLSTYLEMAP
  2
AcDbCellStyleMap
  3
ObjectDBX Classes
 90
     1152
 91
        4
280
     0
281
     0
  0
ENDSEC
  0
SECTION
  2
TABLES
  0
TABLE
  2
VPORT
  5
8
330
0
100
AcDbSymbolTable
 70
     1
  0
VPORT
  5
29
330
8
100
AcDbSymbolTableRecord
100
AcDbViewportTableRecord
  2
*Active
 70
     0
 10
0.0
 20
0.0
 11
1.0
 21
1.0
 12
344.186916
 22
148.5
 13
0.0
 23
0.0
 14
10.0
 24
10.0
 15
10.0
 25
10.0
 16
0.0
 26
0.0
 36
1.0
 17
0.0
 27
0.0
 37
0.0
 40
297.0
 41
1.972973
 42
50.0
 43
0.0
 44
0.0
 50
0.0
 51
0.0
 71
     0
 72
   100
 73
     1
 74
     3
 75
     0
 76
     0
 77
     0
 78
     0
281
     0
 65
     1
110
0.0
120
0.0
130
0.0
111
1.0
121
0.0
131
0.0
112
0.0
122
1.0
132
0.0
 79
     0
146
0.0
348
2F
 60
     3
 61
     5
292
     1
282
     1
141
0.0
142
0.0
 63
   250
361
6D
  0
ENDTAB
  0
TABLE
  2
LTYPE
  5
5
330
0
100
AcDbSymbolTable
 70
     1
  0
LTYPE
  5
14
330
5
100
AcDbSymbolTableRecord
100
AcDbLinetypeTableRecord
  2
ByBlock
 70
     0
  3

 72
    65
 73
     0
 40
0.0
  0
LTYPE
  5
15
330
5
100
AcDbSymbolTableRecord
100
AcDbLinetypeTableRecord
  2
ByLayer
 70
     0
  3

 72
    65
 73
     0
 40
0.0
  0
LTYPE
  5
16
330
5
100
AcDbSymbolTableRecord
100
AcDbLinetypeTableRecord
  2
Continuous
 70
     0
  3
Solid line
 72
    65
 73
     0
 40
0.0
  0
ENDTAB
  0
TABLE
  2
LAYER
  5
2
330
0
100
AcDbSymbolTable
 70
     1
  0
LAYER
  5
10
330
2
100
AcDbSymbolTableRecord
100
AcDbLayerTableRecord
  2
0
 70
     0
 62
   106
  6
Continuous
370
     0
390
F
347
46
  0
ENDTAB
  0
TABLE
  2
STYLE
  5
3
330
0
100
AcDbSymbolTable
 70
     4
  0
STYLE
  5
11
330
3
100
AcDbSymbolTableRecord
100
AcDbTextStyleTableRecord
  2
Standard
 70
     0
 40
0.0
 41
1.0
 50
0.0
 71
     0
 42
2.5
  3
txt
  4

  0
STYLE
  5
6E
330
3
100
AcDbSymbolTableRecord
100
AcDbTextStyleTableRecord
  2
Default
 70
     0
 40
0.0
 41
1.0
 50
0.0
 71
     0
 42
2.5
  3

  4

1001
ACAD
1000
txt
1071
        0
  0
STYLE
  5
6F
330
3
100
AcDbSymbolTableRecord
100
AcDbTextStyleTableRecord
  2
ISO
 70
     0
 40
0.0
 41
1.0
 50
0.0
 71
     0
 42
2.5
  3

  4

1001
ACAD
1000
txt
1071
        0
  0
STYLE
  5
70
330
3
100
AcDbSymbolTableRecord
100
AcDbTextStyleTableRecord
  2
zucchetti
 70
     0
 40
0.0
 41
1.0
 50
0.0
 71
     0
 42
2.5
  3

  4

1001
ACAD
1000
Arial
1071
        0
  0
ENDTAB
  0
TABLE
  2
VIEW
  5
6
330
0
100
AcDbSymbolTable
 70
     0
  0
ENDTAB
  0
TABLE
  2
UCS
  5
7
330
0
100
AcDbSymbolTable
 70
     0
  0
ENDTAB
  0
TABLE
  2
APPID
  5
9
330
0
100
AcDbSymbolTable
 70
     1
  0
APPID
  5
12
330
9
100
AcDbSymbolTableRecord
100
AcDbRegAppTableRecord
  2
ACAD
 70
     0
  0
ENDTAB
  0
TABLE
  2
DIMSTYLE
  5
A
330
0
100
AcDbSymbolTable
 70
     4
100
AcDbDimStyleTable
  0
DIMSTYLE
105
27
330
A
100
AcDbSymbolTableRecord
100
AcDbDimStyleTableRecord
  2
ISO-25
 70
     0
 41
2.5
 42
0.625
 43
3.75
 44
1.25
 73
     0
 74
     0
 77
     1
 78
     8
140
2.5
141
2.5
143
0.03937
147
0.625
171
     3
172
     1
178
     0
271
     2
272
     2
274
     3
278
    44
283
     0
284
     8
340
11
  0
DIMSTYLE
105
71
330
A
100
AcDbSymbolTableRecord
100
AcDbDimStyleTableRecord
  2
Default
 70
     0
  3
<>
 41
4.375
 42
1.05
 44
2.1
 49
10.01
 73
     0
 74
     0
 77
     1
 78
     8
140
3.5
146
0.4
147
1.75
172
     1
271
     2
178
     3
271
     2
272
     3
284
     8
340
6E
341
72
342
72
  0
DIMSTYLE
105
79
330
A
100
AcDbSymbolTableRecord
100
AcDbDimStyleTableRecord
  2
ISO
 70
     0
  3
<>
 41
4.375
 42
1.05
 44
2.1
 49
10.01
 73
     0
 74
     0
 77
     1
 78
     8
140
3.5
146
0.4
147
1.75
172
     1
271
     2
178
     3
271
     2
272
     3
284
     8
340
6F
341
72
342
72
  0
DIMSTYLE
105
7A
330
A
100
AcDbSymbolTableRecord
100
AcDbDimStyleTableRecord
  2
zucchetti
 70
     0
  3
<>
 41
3.0
 42
0.9
 44
1.8
 49
8.58
 73
     0
 74
     0
 77
     1
 78
     8
140
3.0
146
0.6
147
1.5
172
     1
176
     3
177
     3
271
     2
178
     3
271
     2
272
     2
284
     8
340
70
  0
ENDTAB
  0
TABLE
  2
BLOCK_RECORD
  5
1
330
0
100
AcDbSymbolTable
 70
     6
  0
BLOCK_RECORD
  5
1F
330
1
100
AcDbSymbolTableRecord
100
AcDbBlockTableRecord
  2
*Model_Space
340
22
 70
     0
280
     1
281
     0
  0
BLOCK_RECORD
  5
1B
330
1
100
AcDbSymbolTableRecord
100
AcDbBlockTableRecord
  2
*Paper_Space
340
1E
 70
     0
280
     1
281
     0
  0
BLOCK_RECORD
  5
23
330
1
100
AcDbSymbolTableRecord
100
AcDbBlockTableRecord
  2
*Paper_Space0
340
26
 70
     0
280
     1
281
     0
  0
BLOCK_RECORD
  5
72
330
1
100
AcDbSymbolTableRecord
100
AcDbBlockTableRecord
  2
_CLOSED
340
0
 70
     0
280
     1
281
     0
  0
BLOCK_RECORD
  5
7B
330
1
100
AcDbSymbolTableRecord
100
AcDbBlockTableRecord
  2
a
340
0
102
{BLKREFS
331
19F
102
}
 70
     0
280
     1
281
     0
  0
BLOCK_RECORD
  5
1A0
330
1
100
AcDbSymbolTableRecord
100
AcDbBlockTableRecord
  2
b
340
0
102
{BLKREFS
331
1ED
102
}
 70
     0
280
     1
281
     0
  0
BLOCK_RECORD
  5
1EE
330
1
100
AcDbSymbolTableRecord
100
AcDbBlockTableRecord
  2
c
340
0
102
{BLKREFS
331
2DD
102
}
 70
     0
280
     1
281
     0
  0
BLOCK_RECORD
  5
2DE
330
1
100
AcDbSymbolTableRecord
100
AcDbBlockTableRecord
  2
d
340
0
102
{BLKREFS
331
3CD
102
}
 70
     0
280
     1
281
     0
  0
ENDTAB
  0
ENDSEC
  0
SECTION
  2
BLOCKS
  0
BLOCK
  5
20
330
1F
100
AcDbEntity
  8
0
100
AcDbBlockBegin
  2
*Model_Space
 70
     0
 10
0.0
 20
0.0
 30
0.0
  3
*Model_Space
  1

  0
ENDBLK
  5
21
330
1F
100
AcDbEntity
  8
0
100
AcDbBlockEnd
  0
BLOCK
  5
1C
330
1B
100
AcDbEntity
 67
     1
  8
0
100
AcDbBlockBegin
  2
*Paper_Space
 70
     0
 10
0.0
 20
0.0
 30
0.0
  3
*Paper_Space
  1

  0
ENDBLK
  5
1D
330
1B
100
AcDbEntity
 67
     1
  8
0
100
AcDbBlockEnd
  0
BLOCK
  5
24
330
23
100
AcDbEntity
  8
0
100
AcDbBlockBegin
  2
*Paper_Space0
 70
     0
 10
0.0
 20
0.0
 30
0.0
  3
*Paper_Space0
  1

  0
ENDBLK
  5
25
330
23
100
AcDbEntity
  8
0
100
AcDbBlockEnd
  0
BLOCK
  5
73
330
72
100
AcDbEntity
  8
0
100
AcDbBlockBegin
  2
_CLOSED
 70
     0
 10
0.0
 20
0.0
 30
0.0
  3
_CLOSED
  1

  0
LINE
  5
75
330
72
100
AcDbEntity
  8
0
  6
ByBlock
 62
     0
370
    -2
100
AcDbLine
 10
-1.0
 20
0.166667
 30
0.0
 11
0.0
 21
0.0
 31
0.0
  0
LINE
  5
76
330
72
100
AcDbEntity
  8
0
  6
ByBlock
 62
     0
370
    -2
100
AcDbLine
 10
0.0
 20
0.0
 30
0.0
 11
-1.0
 21
-0.166667
 31
0.0
  0
LINE
  5
77
330
72
100
AcDbEntity
  8
0
  6
ByBlock
 62
     0
370
    -2
100
AcDbLine
 10
-1.0
 20
0.166667
 30
0.0
 11
-1.0
 21
-0.166667
 31
0.0
  0
LINE
  5
78
330
72
100
AcDbEntity
  8
0
  6
ByBlock
 62
     0
370
    -2
100
AcDbLine
 10
0.0
 20
0.0
 30
0.0
 11
-1.0
 21
0.0
 31
0.0
  0
ENDBLK
  5
74
330
72
100
AcDbEntity
  8
0
100
AcDbBlockEnd
  0
BLOCK
  5
19D
330
7B
100
AcDbEntity
  8
0
100
AcDbBlockBegin
  2
a
 70
     0
 10
14.975258
 20
96.550018
 30
0.0
  3
a
  1

  0
LINE
  5
7C
330
7B
100
AcDbEntity
  8
0
  6
Continuous
 62
     0
370
     0
100
AcDbLine
 10
130.429827
 20
759.828328
 30
0.0
 11
130.431509
 21
764.828327
 31
0.0
  0
LINE
  5
7D
330
7B
100
AcDbEntity
  8
0
  6
Continuous
 62
     0
370
     0
100
AcDbLine
 10
130.428145
 20
754.828328
 30
0.0
 11
130.429827
 21
759.828328
 31
0.0
  0
LWPOLYLINE
  5
7E
330
7B
100
AcDbEntity
  8
0
  6
Continuous
 62
     0
370
    30
100
AcDbPolyline
 90
        3
 70
     0
 43
0.0
 10
120.857475
 20
755.633179
 10
120.781273
 20
755.413147
 10
120.681343
 20
755.14917
  0
LWPOLYLINE
  5
7F
330
7B
100
AcDbEntity
  8
0
  6
Continuous
 62
     0
370
    30
100
AcDbPolyline
 90
        3
 70
     0
 43
0.0
 10
120.684494
 20
764.514099
 10
120.750359
 20
764.343201
 10
120.860298
 20
764.029907
  0
LINE
  5
80
330
7B
100
AcDbEntity
  8
0
  6
Continuous
 62
     0
370
     0
100
AcDbLine
 10
136.615722
 20
759.826247
 30
0.0
 11
136.618125
 21
766.969104
 31
0.0
  0
LINE
  5
81
330
7B
100
AcDbEntity
  8
0
  6
Continuous
 62
     0
370
     0
100
AcDbLine
 10
136.61332
 20
752.68339
 30
0.0
 11
136.615722
 21
759.826247
 31
0.0
  0
LINE
  5
82
330
7B
100
AcDbEntity
  8
0
  6
Continuous
 62
     0
370
     0
100
AcDbLine
 10
142.372688
 20
759.82431
 30
0.0
 11
142.374802
 21
766.110024
 31
0.0
  0
LINE
  5
83
330
7B
100
AcDbEntity
  8
0
  6
Continuous
 62
     0
370
     0
100
AcDbLine
 10
142.370573
 20
753.538597
 30
0.0
 11
142.372688
 21
759.82431
 31
0.0
  0
LINE
  5
84
330
7B
100
AcDbEntity
  8
0
  6
Continuous
 62
     0
370
     0
100
AcDbLine
 10
108.562847
 20
781.710024
 30
0.0
 11
103.562847
 21
781.711706
 31
0.0
  0
LINE
  5
85
330
7B
100
AcDbEntity
  8
0
  6
Continuous
 62
     0
370
     0
100
AcDbLine
 10
113.562846
 20
781.708342
 30
0.0
 11
108.562847
 21
781.710024
 31
0.0
  0
LWPOLYLINE
  5
86
330
7B
100
AcDbEntity
  8
0
  6
Continuous
 62
     0
370
    30
100
AcDbPolyline
 90
        3
 70
     0
 43
0.0
 10
103.877106
 20
771.964722
 10
104.048004
 20
772.030579
 10
104.361244
 20
772.140503
  0
LINE
  5
87
330
7B
100
AcDbEntity
  8
0
  6
Continuous
 62
     0
370
     0
100
AcDbLine
 10
108.564927
 20
787.89592
 30
0.0
 11
101.422071
 21
787.898322
 31
0.0
  0
LINE
  5
88
330
7B
100
AcDbEntity
  8
0
  6
Continuous
 62
     0
370
     0
100
AcDbLine
 10
115.707784
 20
787.893517
 30
0.0
 11
108.564927
 21
787.89592
 31
0.0
  0
LINE
  5
89
330
7B
100
AcDbEntity
  8
0
  6
Continuous
 62
     0
370
     0
100
AcDbLine
 10
108.566864
 20
793.652885
 30
0.0
 11
102.28115
 21
793.654999
 31
0.0
  0
LINE
  5
8A
330
7B
100
AcDbEntity
  8
0
  6
Continuous
 62
     0
370
     0
100
AcDbLine
 10
114.852578
 20
793.65077
 30
0.0
 11
108.566864
 21
793.652885
 31
0.0
  0
LINE
  5
8B
330
7B
100
AcDbEntity
  8
0
  6
Continuous
 62
     0
370
     0
100
AcDbLine
 10
86.68115
 20
759.843044
 30
0.0
 11
86.679468
 21
754.843044
 31
0.0
  0
LINE
  5
8C
330
7B
100
AcDbEntity
  8
0
  6
Continuous
 62
     0
370
     0
100
AcDbLine
 10
86.682832
 20
764.843043
 30
0.0
 11
86.68115
 21
759.843044
 31
0.0
  0
LWPOLYLINE
  5
8D
330
7B
100
AcDbEntity
  8
0
  6
Continuous
 62
     0
370
    30
100
AcDbPolyline
 90
        3
 70
     0
 43
0.0
 10
96.253502
 20
764.038208
 10
96.329704
 20
764.25824
 10
96.429634
 20
764.522217
  0
LWPOLYLINE
  5
8E
330
7B
100
AcDbEntity
  8
0
  6
Continuous
 62
     0
370
    30
100
AcDbPolyline
 90
        3
 70
     0
 43
0.0
 10
96.426483
 20
755.157288
 10
96.360619
 20
755.328186
 10
96.250679
 20
755.641418
  0
LINE
  5
8F
330
7B
100
AcDbEntity
  8
0
  6
Continuous
 62
     0
370
     0
100
AcDbLine
 10
80.495255
 20
759.845124
 30
0.0
 11
80.492852
 21
752.702268
 31
0.0
  0
LINE
  5
90
330
7B
100
AcDbEntity
  8
0
  6
Continuous
 62
     0
370
     0
100
AcDbLine
 10
80.497657
 20
766.987981
 30
0.0
 11
80.495255
 21
759.845124
 31
0.0
  0
LINE
  5
91
330
7B
100
AcDbEntity
  8
0
  6
Continuous
 62
     0
370
     0
100
AcDbLine
 10
74.73829
 20
759.847061
 30
0.0
 11
74.736175
 21
753.561347
 31
0.0
  0
LINE
  5
92
330
7B
100
AcDbEntity
  8
0
  6
Continuous
 62
     0
370
     0
100
AcDbLine
 10
74.740404
 20
766.132775
 30
0.0
 11
74.73829
 21
759.847061
 31
0.0
  0
LINE
  5
93
330
7B
100
AcDbEntity
  8
0
  6
Continuous
 62
     0
370
     0
100
AcDbLine
 10
108.548131
 20
737.961347
 30
0.0
 11
113.54813
 21
737.959665
 31
0.0
  0
LINE
  5
94
330
7B
100
AcDbEntity
  8
0
  6
Continuous
 62
     0
370
     0
100
AcDbLine
 10
103.548131
 20
737.963029
 30
0.0
 11
108.548131
 21
737.961347
 31
0.0
  0
LWPOLYLINE
  5
95
330
7B
100
AcDbEntity
  8
0
  6
Continuous
 62
     0
370
    30
100
AcDbPolyline
 90
        3
 70
     0
 43
0.0
 10
104.352966
 20
747.533691
 10
104.13295
 20
747.609924
 10
103.868942
 20
747.709839
  0
LWPOLYLINE
  5
96
330
7B
100
AcDbEntity
  8
0
  6
Continuous
 62
     0
370
    30
100
AcDbPolyline
 90
        3
 70
     0
 43
0.0
 10
113.233871
 20
747.706665
 10
113.062973
 20
747.640808
 10
112.749733
 20
747.530884
  0
LINE
  5
97
330
7B
100
AcDbEntity
  8
0
  6
Continuous
 62
     0
370
     0
100
AcDbLine
 10
108.54605
 20
731.775452
 30
0.0
 11
115.688907
 21
731.773049
 31
0.0
  0
LINE
  5
98
330
7B
100
AcDbEntity
  8
0
  6
Continuous
 62
     0
370
     0
100
AcDbLine
 10
101.403193
 20
731.777855
 30
0.0
 11
108.54605
 21
731.775452
 31
0.0
  0
LINE
  5
99
330
7B
100
AcDbEntity
  8
0
  6
Continuous
 62
     0
370
     0
100
AcDbLine
 10
108.544113
 20
726.018487
 30
0.0
 11
114.829827
 21
726.016372
 31
0.0
  0
LINE
  5
9A
330
7B
100
AcDbEntity
  8
0
  6
Continuous
 62
     0
370
     0
100
AcDbLine
 10
102.258399
 20
726.020601
 30
0.0
 11
108.544113
 21
726.018487
 31
0.0
  0
ARC
  5
9B
330
7B
100
AcDbEntity
  8
0
  6
Continuous
 62
     0
370
    30
100
AcDbCircle
 10
108.555489
 20
759.835686
 30
0.0
 40
13.00000326245964
100
AcDbArc
 50
88.949379
 51
268.949379
  0
ARC
  5
9C
330
7B
100
AcDbEntity
  8
0
  6
Continuous
 62
     0
370
    30
100
AcDbCircle
 10
108.555489
 20
759.835686
 30
0.0
 40
13.00000326245964
100
AcDbArc
 50
268.949379
 51
88.949379
  0
ARC
  5
9D
330
7B
100
AcDbEntity
  8
0
  6
Continuous
 62
     0
370
     0
100
AcDbCircle
 10
108.555489
 20
759.835686
 30
0.0
 40
8.000003262459655
100
AcDbArc
 50
268.949379
 51
88.949379
  0
ARC
  5
9E
330
7B
100
AcDbEntity
  8
0
  6
Continuous
 62
     0
370
     0
100
AcDbCircle
 10
108.555489
 20
759.835686
 30
0.0
 40
8.000003262459662
100
AcDbArc
 50
88.949379
 51
268.949379
  0
ARC
  5
9F
330
7B
100
AcDbEntity
  8
0
  6
Continuous
 62
     0
370
    30
100
AcDbCircle
 10
108.555489
 20
759.835686
 30
0.0
 40
7.100003262459589
100
AcDbArc
 50
268.949379
 51
88.949379
  0
ARC
  5
A0
330
7B
100
AcDbEntity
  8
0
  6
Continuous
 62
     0
370
    30
100
AcDbCircle
 10
108.555489
 20
759.835686
 30
0.0
 40
7.100003262459589
100
AcDbArc
 50
88.949379
 51
268.949379
  0
ARC
  5
A1
330
7B
100
AcDbEntity
  8
0
  6
Continuous
 62
     0
370
    30
100
AcDbCircle
 10
108.555489
 20
759.835686
 30
0.0
 40
7.0
100
AcDbArc
 50
89.980699
 51
269.980727
  0
ARC
  5
A2
330
7B
100
AcDbEntity
  8
0
  6
Continuous
 62
     0
370
    30
100
AcDbCircle
 10
108.555489
 20
759.835686
 30
0.0
 40
7.0
100
AcDbArc
 50
269.980727
 51
89.980699
  0
ARC
  5
A3
330
7B
100
AcDbEntity
  8
0
  6
Continuous
 62
     0
370
    30
100
AcDbCircle
 10
108.547125
 20
735.045736
 30
0.0
 40
11.00007956540203
100
AcDbArc
 50
269.984289
 51
304.830502
  0
ARC
  5
A4
330
7B
100
AcDbEntity
  8
0
  6
Continuous
 62
     0
370
    30
100
AcDbCircle
 10
108.547175
 20
735.045736
 30
0.0
 40
11.00007956538784
100
AcDbArc
 50
235.130953
 51
269.977166
  0
ARC
  5
A5
330
7B
100
AcDbEntity
  8
0
  6
Continuous
 62
     0
370
    30
100
AcDbCircle
 10
104.545232
 20
729.302441
 30
0.0
 40
4.000010184190479
100
AcDbArc
 50
141.767671
 51
235.130668
  0
ARC
  5
A6
330
7B
100
AcDbEntity
  8
0
  6
Continuous
 62
     0
370
    30
100
AcDbCircle
 10
112.545203
 20
729.29975
 30
0.0
 40
4.000010184190356
100
AcDbArc
 50
304.830786
 51
38.193783
  0
ARC
  5
A7
330
7B
100
AcDbEntity
  8
0
  6
Continuous
 62
     0
370
    30
100
AcDbCircle
 10
123.548216
 20
737.956332
 30
0.0
 40
10.0000865932295
100
AcDbArc
 50
179.980899
 51
218.193766
  0
ARC
  5
A8
330
7B
100
AcDbEntity
  8
0
  6
Continuous
 62
     0
370
    30
100
AcDbCircle
 10
93.548045
 20
737.966423
 30
0.0
 40
10.00008659322764
100
AcDbArc
 50
321.767688
 51
359.980555
  0
LINE
  5
A9
330
7B
100
AcDbEntity
  8
0
  6
Continuous
 62
     0
370
    30
100
AcDbLine
 10
103.551452
 20
747.835865
 30
0.0
 11
103.548131
 21
737.963029
 31
0.0
  0
LINE
  5
AA
330
7B
100
AcDbEntity
  8
0
  6
Continuous
 62
     0
370
    30
100
AcDbLine
 10
113.551451
 20
747.832501
 30
0.0
 11
113.54813
 21
737.959665
 31
0.0
  0
ARC
  5
AB
330
7B
100
AcDbEntity
  8
0
  6
Continuous
 62
     0
370
    30
100
AcDbCircle
 10
83.765538
 20
759.844049
 30
0.0
 40
11.00007956543068
100
AcDbArc
 50
179.984289
 51
214.830502
  0
ARC
  5
AC
330
7B
100
AcDbEntity
  8
0
  6
Continuous
 62
     0
370
    30
100
AcDbCircle
 10
83.765538
 20
759.843999
 30
0.0
 40
11.00007956543889
100
AcDbArc
 50
145.130953
 51
179.977166
  0
ARC
  5
AD
330
7B
100
AcDbEntity
  8
0
  6
Continuous
 62
     0
370
    30
100
AcDbCircle
 10
78.022244
 20
763.845942
 30
0.0
 40
4.000010184190089
100
AcDbArc
 50
51.767671
 51
145.130668
  0
ARC
  5
AE
330
7B
100
AcDbEntity
  8
0
  6
Continuous
 62
     0
370
    30
100
AcDbCircle
 10
78.019553
 20
755.845972
 30
0.0
 40
4.000010184190645
100
AcDbArc
 50
214.830786
 51
308.193783
  0
ARC
  5
AF
330
7B
100
AcDbEntity
  8
0
  6
Continuous
 62
     0
370
    30
100
AcDbCircle
 10
86.676135
 20
744.842958
 30
0.0
 40
10.00008659323128
100
AcDbArc
 50
89.980899
 51
128.193766
  0
ARC
  5
B0
330
7B
100
AcDbEntity
  8
0
  6
Continuous
 62
     0
370
    30
100
AcDbCircle
 10
86.686226
 20
774.843129
 30
0.0
 40
10.00008659323148
100
AcDbArc
 50
231.767688
 51
269.980555
  0
LINE
  5
B1
330
7B
100
AcDbEntity
  8
0
  6
Continuous
 62
     0
370
    30
100
AcDbLine
 10
96.555668
 20
764.839722
 30
0.0
 11
86.682832
 21
764.843043
 31
0.0
  0
LINE
  5
B2
330
7B
100
AcDbEntity
  8
0
  6
Continuous
 62
     0
370
    30
100
AcDbLine
 10
96.552304
 20
754.839723
 30
0.0
 11
86.679468
 21
754.843044
 31
0.0
  0
ARC
  5
B3
330
7B
100
AcDbEntity
  8
0
  6
Continuous
 62
     0
370
    30
100
AcDbCircle
 10
108.563852
 20
784.625636
 30
0.0
 40
11.0000795654582
100
AcDbArc
 50
89.984289
 51
124.830502
  0
ARC
  5
B4
330
7B
100
AcDbEntity
  8
0
  6
Continuous
 62
     0
370
    30
100
AcDbCircle
 10
108.563802
 20
784.625636
 30
0.0
 40
11.00007956545869
100
AcDbArc
 50
55.130953
 51
89.977166
  0
ARC
  5
B5
330
7B
100
AcDbEntity
  8
0
  6
Continuous
 62
     0
370
    30
100
AcDbCircle
 10
112.565745
 20
790.36893
 30
0.0
 40
4.000010184190775
100
AcDbArc
 50
321.767671
 51
55.130668
  0
ARC
  5
B6
330
7B
100
AcDbEntity
  8
0
  6
Continuous
 62
     0
370
    30
100
AcDbCircle
 10
104.565775
 20
790.371621
 30
0.0
 40
4.00001018419033
100
AcDbArc
 50
124.830786
 51
218.193783
  0
ARC
  5
B7
330
7B
100
AcDbEntity
  8
0
  6
Continuous
 62
     0
370
    30
100
AcDbCircle
 10
93.562761
 20
781.71504
 30
0.0
 40
10.00008659322981
100
AcDbArc
 50
359.980899
 51
38.193766
  0
ARC
  5
B8
330
7B
100
AcDbEntity
  8
0
  6
Continuous
 62
     0
370
    30
100
AcDbCircle
 10
123.562932
 20
781.704949
 30
0.0
 40
10.0000865932318
100
AcDbArc
 50
141.767688
 51
179.980555
  0
LINE
  5
B9
330
7B
100
AcDbEntity
  8
0
  6
Continuous
 62
     0
370
    30
100
AcDbLine
 10
113.559525
 20
771.835447
 30
0.0
 11
113.562846
 21
781.708342
 31
0.0
  0
LINE
  5
BA
330
7B
100
AcDbEntity
  8
0
  6
Continuous
 62
     0
370
    30
100
AcDbLine
 10
103.559526
 20
771.83887
 30
0.0
 11
103.562847
 21
781.711706
 31
0.0
  0
ARC
  5
BB
330
7B
100
AcDbEntity
  8
0
  6
Continuous
 62
     0
370
    30
100
AcDbCircle
 10
133.345439
 20
759.827322
 30
0.0
 40
11.00007956552852
100
AcDbArc
 50
359.984289
 51
34.830502
  0
ARC
  5
BC
330
7B
100
AcDbEntity
  8
0
  6
Continuous
 62
     0
370
    30
100
AcDbCircle
 10
133.345439
 20
759.827372
 30
0.0
 40
11.00007956545085
100
AcDbArc
 50
325.130953
 51
359.977166
  0
ARC
  5
BD
330
7B
100
AcDbEntity
  8
0
  6
Continuous
 62
     0
370
    30
100
AcDbCircle
 10
139.088733
 20
755.82543
 30
0.0
 40
4.000010184190351
100
AcDbArc
 50
231.767671
 51
325.130668
  0
ARC
  5
BE
330
7B
100
AcDbEntity
  8
0
  6
Continuous
 62
     0
370
    30
100
AcDbCircle
 10
139.091424
 20
763.8254
 30
0.0
 40
4.000010184189966
100
AcDbArc
 50
34.830786
 51
128.193783
  0
ARC
  5
BF
330
7B
100
AcDbEntity
  8
0
  6
Continuous
 62
     0
370
    30
100
AcDbCircle
 10
130.434843
 20
774.828414
 30
0.0
 40
10.00008659322934
100
AcDbArc
 50
269.980899
 51
308.193766
  0
ARC
  5
C0
330
7B
100
AcDbEntity
  8
0
  6
Continuous
 62
     0
370
    30
100
AcDbCircle
 10
130.424751
 20
744.828242
 30
0.0
 40
10.0000865932318
100
AcDbArc
 50
51.767688
 51
89.980555
  0
LINE
  5
C1
330
7B
100
AcDbEntity
  8
0
  6
Continuous
 62
     0
370
    30
100
AcDbLine
 10
120.55531
 20
754.831649
 30
0.0
 11
130.428145
 21
754.828328
 31
0.0
  0
LINE
  5
C2
330
7B
100
AcDbEntity
  8
0
  6
Continuous
 62
     0
370
    30
100
AcDbLine
 10
120.558673
 20
764.831648
 30
0.0
 11
130.431509
 21
764.828327
 31
0.0
  0
ARC
  5
C3
330
7B
100
AcDbEntity
  8
0
  6
Continuous
 62
     0
370
     0
100
AcDbCircle
 10
108.555489
 20
759.835686
 30
0.0
 40
15.32162671768653
100
AcDbArc
 50
199.027269
 51
250.934185
  0
ARC
  5
C4
330
7B
100
AcDbEntity
  8
0
  6
Continuous
 62
     0
370
     0
100
AcDbCircle
 10
108.555489
 20
759.835686
 30
0.0
 40
15.32162671768689
100
AcDbArc
 50
289.027269
 51
340.934185
  0
ARC
  5
C5
330
7B
100
AcDbEntity
  8
0
  6
Continuous
 62
     0
370
     0
100
AcDbCircle
 10
108.555489
 20
759.835686
 30
0.0
 40
15.32162671768694
100
AcDbArc
 50
19.027269
 51
70.934185
  0
ARC
  5
C6
330
7B
100
AcDbEntity
  8
0
  6
Continuous
 62
     0
370
     0
100
AcDbCircle
 10
108.555489
 20
759.835686
 30
0.0
 40
15.32162671768739
100
AcDbArc
 50
109.027269
 51
160.934185
  0
ARC
  5
C7
330
7B
100
AcDbEntity
  8
0
  6
Continuous
 62
     0
370
     0
100
AcDbCircle
 10
108.555489
 20
759.835686
 30
0.0
 40
23.20500521731064
100
AcDbArc
 50
102.500732
 51
167.460724
  0
ARC
  5
C8
330
7B
100
AcDbEntity
  8
0
  6
Continuous
 62
     0
370
     0
100
AcDbCircle
 10
108.555489
 20
759.835686
 30
0.0
 40
23.20500521731083
100
AcDbArc
 50
12.500732
 51
77.460724
  0
ARC
  5
C9
330
7B
100
AcDbEntity
  8
0
  6
Continuous
 62
     0
370
     0
100
AcDbCircle
 10
108.555489
 20
759.835686
 30
0.0
 40
23.20500521731075
100
AcDbArc
 50
282.500732
 51
347.460724
  0
ARC
  5
CA
330
7B
100
AcDbEntity
  8
0
  6
Continuous
 62
     0
370
     0
100
AcDbCircle
 10
108.555489
 20
759.835686
 30
0.0
 40
23.20500521731079
100
AcDbArc
 50
192.500732
 51
257.460724
  0
ARC
  5
CB
330
7B
100
AcDbEntity
  8
0
  6
Continuous
 62
     0
370
     0
100
AcDbCircle
 10
108.555489
 20
759.835686
 30
0.0
 40
27.32755986931111
100
AcDbArc
 50
103.084626
 51
166.876818
  0
ARC
  5
CC
330
7B
100
AcDbEntity
  8
0
  6
Continuous
 62
     0
370
     0
100
AcDbCircle
 10
108.555489
 20
759.835686
 30
0.0
 40
27.3275598693108
100
AcDbArc
 50
13.084626
 51
76.876818
  0
ARC
  5
CD
330
7B
100
AcDbEntity
  8
0
  6
Continuous
 62
     0
370
     0
100
AcDbCircle
 10
108.555489
 20
759.835686
 30
0.0
 40
27.32755986931097
100
AcDbArc
 50
283.084626
 51
346.876818
  0
ARC
  5
CE
330
7B
100
AcDbEntity
  8
0
  6
Continuous
 62
     0
370
     0
100
AcDbCircle
 10
108.555489
 20
759.835686
 30
0.0
 40
27.32755986931111
100
AcDbArc
 50
193.084626
 51
256.876818
  0
ARC
  5
CF
330
7B
100
AcDbEntity
  8
0
  6
Continuous
 62
     0
370
     0
100
AcDbCircle
 10
108.555489
 20
759.835686
 30
0.0
 40
30.00436063265914
100
AcDbArc
 50
104.839717
 51
165.121737
  0
ARC
  5
D0
330
7B
100
AcDbEntity
  8
0
  6
Continuous
 62
     0
370
     0
100
AcDbCircle
 10
108.555489
 20
759.835686
 30
0.0
 40
30.0043606326595
100
AcDbArc
 50
14.839717
 51
75.121737
  0
ARC
  5
D1
330
7B
100
AcDbEntity
  8
0
  6
Continuous
 62
     0
370
     0
100
AcDbCircle
 10
108.555489
 20
759.835686
 30
0.0
 40
30.00436063265944
100
AcDbArc
 50
284.839717
 51
345.121737
  0
ARC
  5
D2
330
7B
100
AcDbEntity
  8
0
  6
Continuous
 62
     0
370
     0
100
AcDbCircle
 10
108.555489
 20
759.835686
 30
0.0
 40
30.00436063265925
100
AcDbArc
 50
194.839717
 51
255.121737
  0
ARC
  5
D3
330
7B
100
AcDbEntity
  8
0
  6
Continuous
 62
     0
370
    30
100
AcDbCircle
 10
108.555306
 20
759.835963
 30
0.0
 40
32.50059434361667
100
AcDbArc
 50
284.001012
 51
345.960306
  0
ARC
  5
D4
330
7B
100
AcDbEntity
  8
0
  6
Continuous
 62
     0
370
    30
100
AcDbCircle
 10
108.55587
 20
759.836134
 30
0.0
 40
32.50083745762539
100
AcDbArc
 50
194.001349
 51
255.960202
  0
ARC
  5
D5
330
7B
100
AcDbEntity
  8
0
  6
Continuous
 62
     0
370
    30
100
AcDbCircle
 10
108.555215
 20
759.83591
 30
0.0
 40
32.49999424235565
100
AcDbArc
 50
104.000449
 51
165.960933
  0
ARC
  5
D6
330
7B
100
AcDbEntity
  8
0
  6
Continuous
 62
     0
370
    30
100
AcDbCircle
 10
108.55542
 20
759.835576
 30
0.0
 40
32.50045854820622
100
AcDbArc
 50
14.000898
 51
75.960617
  0
ARC
  5
D7
330
7B
100
AcDbEntity
  8
0
  6
Continuous
 62
     0
370
     0
100
AcDbCircle
 10
108.555489
 20
639.835686
 30
0.0
 40
64.51526624356617
100
AcDbArc
 50
180.0
 51
0.000003
  0
ARC
  5
D8
330
7B
100
AcDbEntity
  8
0
  6
Continuous
 62
     0
370
     0
100
AcDbCircle
 10
108.555489
 20
639.835686
 30
0.0
 40
64.51526624356617
100
AcDbArc
 50
0.000003
 51
180.0
  0
ARC
  5
D9
330
7B
100
AcDbEntity
  8
0
  6
Continuous
 62
     0
370
    30
100
AcDbCircle
 10
108.555489
 20
639.835686
 30
0.0
 40
65.0
100
AcDbArc
 50
0.000003
 51
180.0
  0
ARC
  5
DA
330
7B
100
AcDbEntity
  8
0
  6
Continuous
 62
     0
370
    30
100
AcDbCircle
 10
108.555489
 20
639.835686
 30
0.0
 40
65.0
100
AcDbArc
 50
180.0
 51
0.000003
  0
ARC
  5
DB
330
7B
100
AcDbEntity
  8
0
  6
Continuous
 62
     0
370
    30
100
AcDbCircle
 10
108.555489
 20
639.835686
 30
0.0
 40
21.5
100
AcDbArc
 50
270.0
 51
90.0
  0
ARC
  5
DC
330
7B
100
AcDbEntity
  8
0
  6
Continuous
 62
     0
370
    30
100
AcDbCircle
 10
108.555489
 20
639.835686
 30
0.0
 40
21.5
100
AcDbArc
 50
90.0
 51
270.0
  0
ARC
  5
DD
330
7B
100
AcDbEntity
  8
0
  6
Continuous
 62
     0
370
    30
100
AcDbCircle
 10
108.555489
 20
639.835686
 30
0.0
 40
22.00000000707107
100
AcDbArc
 50
270.0
 51
90.0
  0
ARC
  5
DE
330
7B
100
AcDbEntity
  8
0
  6
Continuous
 62
     0
370
    30
100
AcDbCircle
 10
108.555489
 20
639.835686
 30
0.0
 40
22.00000000707107
100
AcDbArc
 50
90.0
 51
270.0
  0
LINE
  5
DF
330
7B
100
AcDbEntity
  8
0
  6
Continuous
 62
     0
370
    30
100
AcDbLine
 10
112.005489
 20
669.665686
 30
0.0
 11
108.555489
 21
669.665686
 31
0.0
  0
LINE
  5
E0
330
7B
100
AcDbEntity
  8
0
  6
Continuous
 62
     0
370
    30
100
AcDbLine
 10
108.555489
 20
669.665686
 30
0.0
 11
105.105489
 21
669.665686
 31
0.0
  0
LWPOLYLINE
  5
E1
330
7B
100
AcDbEntity
  8
0
  6
Continuous
 62
     0
370
    30
100
AcDbPolyline
 90
       13
 70
     0
 43
0.0
 10
112.504837
 20
669.165894
 10
112.471832
 20
669.165894
 10
112.372688
 20
669.165894
 10
112.208687
 20
669.165833
 10
111.983597
 20
669.165833
 10
111.701462
 20
669.165833
 10
111.366486
 20
669.165833
 10
110.984131
 20
669.165833
 10
110.560432
 20
669.165833
 10
110.101471
 20
669.165894
 10
109.615433
 20
669.165894
 10
109.113594
 20
669.165833
 10
108.555489
 20
669.16571
  0
LINE
  5
E2
330
7B
100
AcDbEntity
  8
0
  6
Continuous
 62
     0
370
    30
100
AcDbLine
 10
108.555489
 20
669.165686
 30
0.0
 11
104.606143
 21
669.165889
 31
0.0
  0
LINE
  5
E3
330
7B
100
AcDbEntity
  8
0
  6
Continuous
 62
     0
370
    30
100
AcDbLine
 10
104.605489
 20
669.165912
 30
0.0
 11
104.605489
 21
661.478434
 31
0.0
  0
LINE
  5
E4
330
7B
100
AcDbEntity
  8
0
  6
Continuous
 62
     0
370
    30
100
AcDbLine
 10
112.505489
 20
669.165912
 30
0.0
 11
112.505489
 21
661.47844
 31
0.0
  0
LINE
  5
E5
330
7B
100
AcDbEntity
  8
0
  6
Continuous
 62
     0
370
    30
100
AcDbLine
 10
112.005546
 20
669.665628
 30
0.0
 11
112.50523
 21
669.165944
 31
0.0
  0
LINE
  5
E6
330
7B
100
AcDbEntity
  8
0
  6
Continuous
 62
     0
370
    30
100
AcDbLine
 10
105.105431
 20
669.665628
 30
0.0
 11
104.605747
 21
669.165944
 31
0.0
  0
LINE
  5
E7
330
7B
100
AcDbEntity
  8
0
  6
Continuous
 62
     0
370
     0
100
AcDbLine
 10
130.429827
 20
859.828328
 30
0.0
 11
130.431509
 21
864.828327
 31
0.0
  0
LINE
  5
E8
330
7B
100
AcDbEntity
  8
0
  6
Continuous
 62
     0
370
     0
100
AcDbLine
 10
130.428145
 20
854.828328
 30
0.0
 11
130.429827
 21
859.828328
 31
0.0
  0
LWPOLYLINE
  5
E9
330
7B
100
AcDbEntity
  8
0
  6
Continuous
 62
     0
370
    30
100
AcDbPolyline
 90
        3
 70
     0
 43
0.0
 10
120.857475
 20
855.633179
 10
120.781273
 20
855.413147
 10
120.681343
 20
855.14917
  0
LWPOLYLINE
  5
EA
330
7B
100
AcDbEntity
  8
0
  6
Continuous
 62
     0
370
    30
100
AcDbPolyline
 90
        3
 70
     0
 43
0.0
 10
120.684494
 20
864.514099
 10
120.750359
 20
864.343201
 10
120.860298
 20
864.029907
  0
LINE
  5
EB
330
7B
100
AcDbEntity
  8
0
  6
Continuous
 62
     0
370
     0
100
AcDbLine
 10
136.615722
 20
859.826247
 30
0.0
 11
136.618125
 21
866.969104
 31
0.0
  0
LINE
  5
EC
330
7B
100
AcDbEntity
  8
0
  6
Continuous
 62
     0
370
     0
100
AcDbLine
 10
136.61332
 20
852.68339
 30
0.0
 11
136.615722
 21
859.826247
 31
0.0
  0
LINE
  5
ED
330
7B
100
AcDbEntity
  8
0
  6
Continuous
 62
     0
370
     0
100
AcDbLine
 10
142.372688
 20
859.82431
 30
0.0
 11
142.374802
 21
866.110024
 31
0.0
  0
LINE
  5
EE
330
7B
100
AcDbEntity
  8
0
  6
Continuous
 62
     0
370
     0
100
AcDbLine
 10
142.370573
 20
853.538597
 30
0.0
 11
142.372688
 21
859.82431
 31
0.0
  0
LINE
  5
EF
330
7B
100
AcDbEntity
  8
0
  6
Continuous
 62
     0
370
     0
100
AcDbLine
 10
108.562847
 20
881.710024
 30
0.0
 11
103.562847
 21
881.711706
 31
0.0
  0
LINE
  5
F0
330
7B
100
AcDbEntity
  8
0
  6
Continuous
 62
     0
370
     0
100
AcDbLine
 10
113.562846
 20
881.708342
 30
0.0
 11
108.562847
 21
881.710024
 31
0.0
  0
LWPOLYLINE
  5
F1
330
7B
100
AcDbEntity
  8
0
  6
Continuous
 62
     0
370
    30
100
AcDbPolyline
 90
        3
 70
     0
 43
0.0
 10
103.877106
 20
871.964722
 10
104.048004
 20
872.030579
 10
104.361244
 20
872.140503
  0
LINE
  5
F2
330
7B
100
AcDbEntity
  8
0
  6
Continuous
 62
     0
370
     0
100
AcDbLine
 10
108.564927
 20
887.89592
 30
0.0
 11
101.422071
 21
887.898322
 31
0.0
  0
LINE
  5
F3
330
7B
100
AcDbEntity
  8
0
  6
Continuous
 62
     0
370
     0
100
AcDbLine
 10
115.707784
 20
887.893517
 30
0.0
 11
108.564927
 21
887.89592
 31
0.0
  0
LINE
  5
F4
330
7B
100
AcDbEntity
  8
0
  6
Continuous
 62
     0
370
     0
100
AcDbLine
 10
108.566864
 20
893.652885
 30
0.0
 11
102.28115
 21
893.654999
 31
0.0
  0
LINE
  5
F5
330
7B
100
AcDbEntity
  8
0
  6
Continuous
 62
     0
370
     0
100
AcDbLine
 10
114.852578
 20
893.65077
 30
0.0
 11
108.566864
 21
893.652885
 31
0.0
  0
LINE
  5
F6
330
7B
100
AcDbEntity
  8
0
  6
Continuous
 62
     0
370
     0
100
AcDbLine
 10
86.68115
 20
859.843044
 30
0.0
 11
86.679468
 21
854.843044
 31
0.0
  0
LINE
  5
F7
330
7B
100
AcDbEntity
  8
0
  6
Continuous
 62
     0
370
     0
100
AcDbLine
 10
86.682832
 20
864.843043
 30
0.0
 11
86.68115
 21
859.843044
 31
0.0
  0
LWPOLYLINE
  5
F8
330
7B
100
AcDbEntity
  8
0
  6
Continuous
 62
     0
370
    30
100
AcDbPolyline
 90
        3
 70
     0
 43
0.0
 10
96.253502
 20
864.038208
 10
96.329704
 20
864.25824
 10
96.429634
 20
864.522217
  0
LWPOLYLINE
  5
F9
330
7B
100
AcDbEntity
  8
0
  6
Continuous
 62
     0
370
    30
100
AcDbPolyline
 90
        3
 70
     0
 43
0.0
 10
96.426483
 20
855.157288
 10
96.360619
 20
855.328186
 10
96.250679
 20
855.641418
  0
LINE
  5
FA
330
7B
100
AcDbEntity
  8
0
  6
Continuous
 62
     0
370
     0
100
AcDbLine
 10
80.495255
 20
859.845124
 30
0.0
 11
80.492852
 21
852.702268
 31
0.0
  0
LINE
  5
FB
330
7B
100
AcDbEntity
  8
0
  6
Continuous
 62
     0
370
     0
100
AcDbLine
 10
80.497657
 20
866.987981
 30
0.0
 11
80.495255
 21
859.845124
 31
0.0
  0
LINE
  5
FC
330
7B
100
AcDbEntity
  8
0
  6
Continuous
 62
     0
370
     0
100
AcDbLine
 10
74.73829
 20
859.847061
 30
0.0
 11
74.736175
 21
853.561347
 31
0.0
  0
LINE
  5
FD
330
7B
100
AcDbEntity
  8
0
  6
Continuous
 62
     0
370
     0
100
AcDbLine
 10
74.740404
 20
866.132775
 30
0.0
 11
74.73829
 21
859.847061
 31
0.0
  0
LINE
  5
FE
330
7B
100
AcDbEntity
  8
0
  6
Continuous
 62
     0
370
     0
100
AcDbLine
 10
108.548131
 20
837.961347
 30
0.0
 11
113.54813
 21
837.959665
 31
0.0
  0
LINE
  5
FF
330
7B
100
AcDbEntity
  8
0
  6
Continuous
 62
     0
370
     0
100
AcDbLine
 10
103.548131
 20
837.963029
 30
0.0
 11
108.548131
 21
837.961347
 31
0.0
  0
LWPOLYLINE
  5
100
330
7B
100
AcDbEntity
  8
0
  6
Continuous
 62
     0
370
    30
100
AcDbPolyline
 90
        3
 70
     0
 43
0.0
 10
104.352966
 20
847.533691
 10
104.13295
 20
847.609924
 10
103.868942
 20
847.709839
  0
LWPOLYLINE
  5
101
330
7B
100
AcDbEntity
  8
0
  6
Continuous
 62
     0
370
    30
100
AcDbPolyline
 90
        3
 70
     0
 43
0.0
 10
113.233871
 20
847.706665
 10
113.062973
 20
847.640808
 10
112.749733
 20
847.530884
  0
LINE
  5
102
330
7B
100
AcDbEntity
  8
0
  6
Continuous
 62
     0
370
     0
100
AcDbLine
 10
108.54605
 20
831.775452
 30
0.0
 11
115.688907
 21
831.773049
 31
0.0
  0
LINE
  5
103
330
7B
100
AcDbEntity
  8
0
  6
Continuous
 62
     0
370
     0
100
AcDbLine
 10
101.403193
 20
831.777855
 30
0.0
 11
108.54605
 21
831.775452
 31
0.0
  0
LINE
  5
104
330
7B
100
AcDbEntity
  8
0
  6
Continuous
 62
     0
370
     0
100
AcDbLine
 10
108.544113
 20
826.018487
 30
0.0
 11
114.829827
 21
826.016372
 31
0.0
  0
LINE
  5
105
330
7B
100
AcDbEntity
  8
0
  6
Continuous
 62
     0
370
     0
100
AcDbLine
 10
102.258399
 20
826.020601
 30
0.0
 11
108.544113
 21
826.018487
 31
0.0
  0
ARC
  5
106
330
7B
100
AcDbEntity
  8
0
  6
Continuous
 62
     0
370
    30
100
AcDbCircle
 10
108.555489
 20
859.835686
 30
0.0
 40
13.00000326245964
100
AcDbArc
 50
88.949379
 51
268.949379
  0
ARC
  5
107
330
7B
100
AcDbEntity
  8
0
  6
Continuous
 62
     0
370
    30
100
AcDbCircle
 10
108.555489
 20
859.835686
 30
0.0
 40
13.00000326245963
100
AcDbArc
 50
268.949379
 51
88.949379
  0
ARC
  5
108
330
7B
100
AcDbEntity
  8
0
  6
Continuous
 62
     0
370
     0
100
AcDbCircle
 10
108.555489
 20
859.835686
 30
0.0
 40
8.000003262459684
100
AcDbArc
 50
268.949379
 51
88.949379
  0
ARC
  5
109
330
7B
100
AcDbEntity
  8
0
  6
Continuous
 62
     0
370
     0
100
AcDbCircle
 10
108.555489
 20
859.835686
 30
0.0
 40
8.000003262459684
100
AcDbArc
 50
88.949379
 51
268.949379
  0
ARC
  5
10A
330
7B
100
AcDbEntity
  8
0
  6
Continuous
 62
     0
370
    30
100
AcDbCircle
 10
108.555489
 20
859.835686
 30
0.0
 40
7.100003262459589
100
AcDbArc
 50
268.949379
 51
88.949379
  0
ARC
  5
10B
330
7B
100
AcDbEntity
  8
0
  6
Continuous
 62
     0
370
    30
100
AcDbCircle
 10
108.555489
 20
859.835686
 30
0.0
 40
7.100003262459589
100
AcDbArc
 50
88.949379
 51
268.949379
  0
ARC
  5
10C
330
7B
100
AcDbEntity
  8
0
  6
Continuous
 62
     0
370
    30
100
AcDbCircle
 10
108.555489
 20
859.835686
 30
0.0
 40
7.0
100
AcDbArc
 50
89.980699
 51
269.980727
  0
ARC
  5
10D
330
7B
100
AcDbEntity
  8
0
  6
Continuous
 62
     0
370
    30
100
AcDbCircle
 10
108.555489
 20
859.835686
 30
0.0
 40
7.0
100
AcDbArc
 50
269.980727
 51
89.980699
  0
ARC
  5
10E
330
7B
100
AcDbEntity
  8
0
  6
Continuous
 62
     0
370
    30
100
AcDbCircle
 10
108.547125
 20
835.045736
 30
0.0
 40
11.00007956534105
100
AcDbArc
 50
269.984289
 51
304.830502
  0
ARC
  5
10F
330
7B
100
AcDbEntity
  8
0
  6
Continuous
 62
     0
370
    30
100
AcDbCircle
 10
108.547175
 20
835.045736
 30
0.0
 40
11.00007956502131
100
AcDbArc
 50
235.130953
 51
269.977166
  0
ARC
  5
110
330
7B
100
AcDbEntity
  8
0
  6
Continuous
 62
     0
370
    30
100
AcDbCircle
 10
104.545232
 20
829.302441
 30
0.0
 40
4.000010184191634
100
AcDbArc
 50
141.767671
 51
235.130668
  0
ARC
  5
111
330
7B
100
AcDbEntity
  8
0
  6
Continuous
 62
     0
370
    30
100
AcDbCircle
 10
112.545203
 20
829.29975
 30
0.0
 40
4.00001018419024
100
AcDbArc
 50
304.830786
 51
38.193783
  0
ARC
  5
112
330
7B
100
AcDbEntity
  8
0
  6
Continuous
 62
     0
370
    30
100
AcDbCircle
 10
123.548216
 20
837.956332
 30
0.0
 40
10.00008659322936
100
AcDbArc
 50
179.980899
 51
218.193766
  0
ARC
  5
113
330
7B
100
AcDbEntity
  8
0
  6
Continuous
 62
     0
370
    30
100
AcDbCircle
 10
93.548045
 20
837.966423
 30
0.0
 40
10.00008659322943
100
AcDbArc
 50
321.767688
 51
359.980555
  0
LINE
  5
114
330
7B
100
AcDbEntity
  8
0
  6
Continuous
 62
     0
370
    30
100
AcDbLine
 10
103.551452
 20
847.835865
 30
0.0
 11
103.548131
 21
837.963029
 31
0.0
  0
LINE
  5
115
330
7B
100
AcDbEntity
  8
0
  6
Continuous
 62
     0
370
    30
100
AcDbLine
 10
113.551451
 20
847.832501
 30
0.0
 11
113.54813
 21
837.959665
 31
0.0
  0
ARC
  5
116
330
7B
100
AcDbEntity
  8
0
  6
Continuous
 62
     0
370
    30
100
AcDbCircle
 10
83.765538
 20
859.844049
 30
0.0
 40
11.00007956541601
100
AcDbArc
 50
179.984289
 51
214.830502
  0
ARC
  5
117
330
7B
100
AcDbEntity
  8
0
  6
Continuous
 62
     0
370
    30
100
AcDbCircle
 10
83.765538
 20
859.843999
 30
0.0
 40
11.00007956545728
100
AcDbArc
 50
145.130953
 51
179.977166
  0
ARC
  5
118
330
7B
100
AcDbEntity
  8
0
  6
Continuous
 62
     0
370
    30
100
AcDbCircle
 10
78.022244
 20
863.845942
 30
0.0
 40
4.000010184190904
100
AcDbArc
 50
51.767671
 51
145.130668
  0
ARC
  5
119
330
7B
100
AcDbEntity
  8
0
  6
Continuous
 62
     0
370
    30
100
AcDbCircle
 10
78.019553
 20
855.845972
 30
0.0
 40
4.000010184189515
100
AcDbArc
 50
214.830786
 51
308.193783
  0
ARC
  5
11A
330
7B
100
AcDbEntity
  8
0
  6
Continuous
 62
     0
370
    30
100
AcDbCircle
 10
86.676135
 20
844.842958
 30
0.0
 40
10.00008659322842
100
AcDbArc
 50
89.980899
 51
128.193766
  0
ARC
  5
11B
330
7B
100
AcDbEntity
  8
0
  6
Continuous
 62
     0
370
    30
100
AcDbCircle
 10
86.686226
 20
874.843129
 30
0.0
 40
10.00008659323253
100
AcDbArc
 50
231.767688
 51
269.980555
  0
LINE
  5
11C
330
7B
100
AcDbEntity
  8
0
  6
Continuous
 62
     0
370
    30
100
AcDbLine
 10
96.555668
 20
864.839722
 30
0.0
 11
86.682832
 21
864.843043
 31
0.0
  0
LINE
  5
11D
330
7B
100
AcDbEntity
  8
0
  6
Continuous
 62
     0
370
    30
100
AcDbLine
 10
96.552304
 20
854.839723
 30
0.0
 11
86.679468
 21
854.843044
 31
0.0
  0
ARC
  5
11E
330
7B
100
AcDbEntity
  8
0
  6
Continuous
 62
     0
370
    30
100
AcDbCircle
 10
108.563852
 20
884.625636
 30
0.0
 40
11.00007956543356
100
AcDbArc
 50
89.984289
 51
124.830502
  0
ARC
  5
11F
330
7B
100
AcDbEntity
  8
0
  6
Continuous
 62
     0
370
    30
100
AcDbCircle
 10
108.563802
 20
884.625636
 30
0.0
 40
11.00007956535445
100
AcDbArc
 50
55.130953
 51
89.977166
  0
ARC
  5
120
330
7B
100
AcDbEntity
  8
0
  6
Continuous
 62
     0
370
    30
100
AcDbCircle
 10
112.565745
 20
890.36893
 30
0.0
 40
4.000010184189827
100
AcDbArc
 50
321.767671
 51
55.130668
  0
ARC
  5
121
330
7B
100
AcDbEntity
  8
0
  6
Continuous
 62
     0
370
    30
100
AcDbCircle
 10
104.565775
 20
890.371621
 30
0.0
 40
4.000010184191365
100
AcDbArc
 50
124.830786
 51
218.193783
  0
ARC
  5
122
330
7B
100
AcDbEntity
  8
0
  6
Continuous
 62
     0
370
    30
100
AcDbCircle
 10
93.562761
 20
881.71504
 30
0.0
 40
10.00008659322529
100
AcDbArc
 50
359.980899
 51
38.193766
  0
ARC
  5
123
330
7B
100
AcDbEntity
  8
0
  6
Continuous
 62
     0
370
    30
100
AcDbCircle
 10
123.562932
 20
881.704949
 30
0.0
 40
10.00008659323258
100
AcDbArc
 50
141.767688
 51
179.980555
  0
LINE
  5
124
330
7B
100
AcDbEntity
  8
0
  6
Continuous
 62
     0
370
    30
100
AcDbLine
 10
113.559525
 20
871.835447
 30
0.0
 11
113.562846
 21
881.708342
 31
0.0
  0
LINE
  5
125
330
7B
100
AcDbEntity
  8
0
  6
Continuous
 62
     0
370
    30
100
AcDbLine
 10
103.559526
 20
871.83887
 30
0.0
 11
103.562847
 21
881.711706
 31
0.0
  0
ARC
  5
126
330
7B
100
AcDbEntity
  8
0
  6
Continuous
 62
     0
370
    30
100
AcDbCircle
 10
133.345439
 20
859.827322
 30
0.0
 40
11.00007956552591
100
AcDbArc
 50
359.984289
 51
34.830502
  0
ARC
  5
127
330
7B
100
AcDbEntity
  8
0
  6
Continuous
 62
     0
370
    30
100
AcDbCircle
 10
133.345439
 20
859.827372
 30
0.0
 40
11.00007956540336
100
AcDbArc
 50
325.130953
 51
359.977166
  0
ARC
  5
128
330
7B
100
AcDbEntity
  8
0
  6
Continuous
 62
     0
370
    30
100
AcDbCircle
 10
139.088733
 20
855.82543
 30
0.0
 40
4.000010184190224
100
AcDbArc
 50
231.767671
 51
325.130668
  0
ARC
  5
129
330
7B
100
AcDbEntity
  8
0
  6
Continuous
 62
     0
370
    30
100
AcDbCircle
 10
139.091424
 20
863.8254
 30
0.0
 40
4.000010184191241
100
AcDbArc
 50
34.830786
 51
128.193783
  0
ARC
  5
12A
330
7B
100
AcDbEntity
  8
0
  6
Continuous
 62
     0
370
    30
100
AcDbCircle
 10
130.434843
 20
874.828414
 30
0.0
 40
10.00008659322744
100
AcDbArc
 50
269.980899
 51
308.193766
  0
ARC
  5
12B
330
7B
100
AcDbEntity
  8
0
  6
Continuous
 62
     0
370
    30
100
AcDbCircle
 10
130.424751
 20
844.828242
 30
0.0
 40
10.00008659323148
100
AcDbArc
 50
51.767688
 51
89.980555
  0
LINE
  5
12C
330
7B
100
AcDbEntity
  8
0
  6
Continuous
 62
     0
370
    30
100
AcDbLine
 10
120.55531
 20
854.831649
 30
0.0
 11
130.428145
 21
854.828328
 31
0.0
  0
LINE
  5
12D
330
7B
100
AcDbEntity
  8
0
  6
Continuous
 62
     0
370
    30
100
AcDbLine
 10
120.558673
 20
864.831648
 30
0.0
 11
130.431509
 21
864.828327
 31
0.0
  0
ARC
  5
12E
330
7B
100
AcDbEntity
  8
0
  6
Continuous
 62
     0
370
     0
100
AcDbCircle
 10
108.555489
 20
859.835686
 30
0.0
 40
15.32162671768671
100
AcDbArc
 50
199.027269
 51
250.934185
  0
ARC
  5
12F
330
7B
100
AcDbEntity
  8
0
  6
Continuous
 62
     0
370
     0
100
AcDbCircle
 10
108.555489
 20
859.835686
 30
0.0
 40
15.32162671768604
100
AcDbArc
 50
289.027269
 51
340.934185
  0
ARC
  5
130
330
7B
100
AcDbEntity
  8
0
  6
Continuous
 62
     0
370
     0
100
AcDbCircle
 10
108.555489
 20
859.835686
 30
0.0
 40
15.32162671768634
100
AcDbArc
 50
19.027269
 51
70.934185
  0
ARC
  5
131
330
7B
100
AcDbEntity
  8
0
  6
Continuous
 62
     0
370
     0
100
AcDbCircle
 10
108.555489
 20
859.835686
 30
0.0
 40
15.32162671768647
100
AcDbArc
 50
109.027269
 51
160.934185
  0
ARC
  5
132
330
7B
100
AcDbEntity
  8
0
  6
Continuous
 62
     0
370
     0
100
AcDbCircle
 10
108.555489
 20
859.835686
 30
0.0
 40
23.2050052173101
100
AcDbArc
 50
102.500732
 51
167.460724
  0
ARC
  5
133
330
7B
100
AcDbEntity
  8
0
  6
Continuous
 62
     0
370
     0
100
AcDbCircle
 10
108.555489
 20
859.835686
 30
0.0
 40
23.2050052173099
100
AcDbArc
 50
12.500732
 51
77.460724
  0
ARC
  5
134
330
7B
100
AcDbEntity
  8
0
  6
Continuous
 62
     0
370
     0
100
AcDbCircle
 10
108.555489
 20
859.835686
 30
0.0
 40
23.2050052173108
100
AcDbArc
 50
282.500732
 51
347.460724
  0
ARC
  5
135
330
7B
100
AcDbEntity
  8
0
  6
Continuous
 62
     0
370
     0
100
AcDbCircle
 10
108.555489
 20
859.835686
 30
0.0
 40
23.20500521731048
100
AcDbArc
 50
192.500732
 51
257.460724
  0
ARC
  5
136
330
7B
100
AcDbEntity
  8
0
  6
Continuous
 62
     0
370
     0
100
AcDbCircle
 10
108.555489
 20
859.835686
 30
0.0
 40
27.3275598693108
100
AcDbArc
 50
103.084626
 51
166.876818
  0
ARC
  5
137
330
7B
100
AcDbEntity
  8
0
  6
Continuous
 62
     0
370
     0
100
AcDbCircle
 10
108.555489
 20
859.835686
 30
0.0
 40
27.32755986931112
100
AcDbArc
 50
13.084626
 51
76.876818
  0
ARC
  5
138
330
7B
100
AcDbEntity
  8
0
  6
Continuous
 62
     0
370
     0
100
AcDbCircle
 10
108.555489
 20
859.835686
 30
0.0
 40
27.3275598693113
100
AcDbArc
 50
283.084626
 51
346.876818
  0
ARC
  5
139
330
7B
100
AcDbEntity
  8
0
  6
Continuous
 62
     0
370
     0
100
AcDbCircle
 10
108.555489
 20
859.835686
 30
0.0
 40
27.32755986931178
100
AcDbArc
 50
193.084626
 51
256.876818
  0
ARC
  5
13A
330
7B
100
AcDbEntity
  8
0
  6
Continuous
 62
     0
370
     0
100
AcDbCircle
 10
108.555489
 20
859.835686
 30
0.0
 40
30.00436063265984
100
AcDbArc
 50
104.839717
 51
165.121737
  0
ARC
  5
13B
330
7B
100
AcDbEntity
  8
0
  6
Continuous
 62
     0
370
     0
100
AcDbCircle
 10
108.555489
 20
859.835686
 30
0.0
 40
30.00436063265929
100
AcDbArc
 50
14.839717
 51
75.121737
  0
ARC
  5
13C
330
7B
100
AcDbEntity
  8
0
  6
Continuous
 62
     0
370
     0
100
AcDbCircle
 10
108.555489
 20
859.835686
 30
0.0
 40
30.00436063265841
100
AcDbArc
 50
284.839717
 51
345.121737
  0
ARC
  5
13D
330
7B
100
AcDbEntity
  8
0
  6
Continuous
 62
     0
370
     0
100
AcDbCircle
 10
108.555489
 20
859.835686
 30
0.0
 40
30.00436063265894
100
AcDbArc
 50
194.839717
 51
255.121737
  0
ARC
  5
13E
330
7B
100
AcDbEntity
  8
0
  6
Continuous
 62
     0
370
    30
100
AcDbCircle
 10
108.555306
 20
859.835963
 30
0.0
 40
32.50059434361641
100
AcDbArc
 50
284.001012
 51
345.960306
  0
ARC
  5
13F
330
7B
100
AcDbEntity
  8
0
  6
Continuous
 62
     0
370
    30
100
AcDbCircle
 10
108.55587
 20
859.836134
 30
0.0
 40
32.50083745762569
100
AcDbArc
 50
194.001349
 51
255.960202
  0
ARC
  5
140
330
7B
100
AcDbEntity
  8
0
  6
Continuous
 62
     0
370
    30
100
AcDbCircle
 10
108.555215
 20
859.83591
 30
0.0
 40
32.49999424235661
100
AcDbArc
 50
104.000449
 51
165.960933
  0
ARC
  5
141
330
7B
100
AcDbEntity
  8
0
  6
Continuous
 62
     0
370
    30
100
AcDbCircle
 10
108.55542
 20
859.835576
 30
0.0
 40
32.50045854820695
100
AcDbArc
 50
14.000898
 51
75.960617
  0
LINE
  5
142
330
7B
100
AcDbEntity
  8
0
  6
Continuous
 62
     0
370
     0
100
AcDbLine
 10
130.429827
 20
959.828328
 30
0.0
 11
130.431509
 21
964.828327
 31
0.0
  0
LINE
  5
143
330
7B
100
AcDbEntity
  8
0
  6
Continuous
 62
     0
370
     0
100
AcDbLine
 10
130.428145
 20
954.828328
 30
0.0
 11
130.429827
 21
959.828328
 31
0.0
  0
LWPOLYLINE
  5
144
330
7B
100
AcDbEntity
  8
0
  6
Continuous
 62
     0
370
    30
100
AcDbPolyline
 90
        3
 70
     0
 43
0.0
 10
120.857475
 20
955.633179
 10
120.781273
 20
955.413147
 10
120.681343
 20
955.14917
  0
LWPOLYLINE
  5
145
330
7B
100
AcDbEntity
  8
0
  6
Continuous
 62
     0
370
    30
100
AcDbPolyline
 90
        3
 70
     0
 43
0.0
 10
120.684494
 20
964.514099
 10
120.750359
 20
964.343201
 10
120.860298
 20
964.029907
  0
LINE
  5
146
330
7B
100
AcDbEntity
  8
0
  6
Continuous
 62
     0
370
     0
100
AcDbLine
 10
136.615722
 20
959.826247
 30
0.0
 11
136.618125
 21
966.969104
 31
0.0
  0
LINE
  5
147
330
7B
100
AcDbEntity
  8
0
  6
Continuous
 62
     0
370
     0
100
AcDbLine
 10
136.61332
 20
952.68339
 30
0.0
 11
136.615722
 21
959.826247
 31
0.0
  0
LINE
  5
148
330
7B
100
AcDbEntity
  8
0
  6
Continuous
 62
     0
370
     0
100
AcDbLine
 10
142.372688
 20
959.82431
 30
0.0
 11
142.374802
 21
966.110024
 31
0.0
  0
LINE
  5
149
330
7B
100
AcDbEntity
  8
0
  6
Continuous
 62
     0
370
     0
100
AcDbLine
 10
142.370573
 20
953.538597
 30
0.0
 11
142.372688
 21
959.82431
 31
0.0
  0
LINE
  5
14A
330
7B
100
AcDbEntity
  8
0
  6
Continuous
 62
     0
370
     0
100
AcDbLine
 10
108.562847
 20
981.710024
 30
0.0
 11
103.562847
 21
981.711706
 31
0.0
  0
LINE
  5
14B
330
7B
100
AcDbEntity
  8
0
  6
Continuous
 62
     0
370
     0
100
AcDbLine
 10
113.562846
 20
981.708342
 30
0.0
 11
108.562847
 21
981.710024
 31
0.0
  0
LWPOLYLINE
  5
14C
330
7B
100
AcDbEntity
  8
0
  6
Continuous
 62
     0
370
    30
100
AcDbPolyline
 90
        7
 70
     0
 43
0.0
 10
112.303627
 20
972.28363
 10
112.629959
 20
972.180115
 10
112.912262
 20
972.084412
 10
113.147301
 20
971.998901
 10
113.331848
 20
971.925659
 10
113.463249
 20
971.871643
 10
113.545631
 20
971.839783
  0
LWPOLYLINE
  5
14D
330
7B
100
AcDbEntity
  8
0
  6
Continuous
 62
     0
370
    30
100
AcDbPolyline
 90
        3
 70
     0
 43
0.0
 10
103.877106
 20
971.964722
 10
104.048004
 20
972.030579
 10
104.361244
 20
972.140503
  0
LINE
  5
14E
330
7B
100
AcDbEntity
  8
0
  6
Continuous
 62
     0
370
     0
100
AcDbLine
 10
108.564927
 20
987.89592
 30
0.0
 11
101.422071
 21
987.898322
 31
0.0
  0
LINE
  5
14F
330
7B
100
AcDbEntity
  8
0
  6
Continuous
 62
     0
370
     0
100
AcDbLine
 10
115.707784
 20
987.893517
 30
0.0
 11
108.564927
 21
987.89592
 31
0.0
  0
LINE
  5
150
330
7B
100
AcDbEntity
  8
0
  6
Continuous
 62
     0
370
     0
100
AcDbLine
 10
108.566864
 20
993.652885
 30
0.0
 11
102.28115
 21
993.654999
 31
0.0
  0
LINE
  5
151
330
7B
100
AcDbEntity
  8
0
  6
Continuous
 62
     0
370
     0
100
AcDbLine
 10
114.852578
 20
993.65077
 30
0.0
 11
108.566864
 21
993.652885
 31
0.0
  0
LINE
  5
152
330
7B
100
AcDbEntity
  8
0
  6
Continuous
 62
     0
370
     0
100
AcDbLine
 10
86.68115
 20
959.843044
 30
0.0
 11
86.679468
 21
954.843044
 31
0.0
  0
LINE
  5
153
330
7B
100
AcDbEntity
  8
0
  6
Continuous
 62
     0
370
     0
100
AcDbLine
 10
86.682832
 20
964.843043
 30
0.0
 11
86.68115
 21
959.843044
 31
0.0
  0
LWPOLYLINE
  5
154
330
7B
100
AcDbEntity
  8
0
  6
Continuous
 62
     0
370
    30
100
AcDbPolyline
 90
        3
 70
     0
 43
0.0
 10
96.253502
 20
964.038208
 10
96.329704
 20
964.25824
 10
96.429634
 20
964.522217
  0
LWPOLYLINE
  5
155
330
7B
100
AcDbEntity
  8
0
  6
Continuous
 62
     0
370
    30
100
AcDbPolyline
 90
        3
 70
     0
 43
0.0
 10
96.426483
 20
955.157288
 10
96.360619
 20
955.328186
 10
96.250679
 20
955.641418
  0
LINE
  5
156
330
7B
100
AcDbEntity
  8
0
  6
Continuous
 62
     0
370
     0
100
AcDbLine
 10
80.495255
 20
959.845124
 30
0.0
 11
80.492852
 21
952.702268
 31
0.0
  0
LINE
  5
157
330
7B
100
AcDbEntity
  8
0
  6
Continuous
 62
     0
370
     0
100
AcDbLine
 10
80.497657
 20
966.987981
 30
0.0
 11
80.495255
 21
959.845124
 31
0.0
  0
LINE
  5
158
330
7B
100
AcDbEntity
  8
0
  6
Continuous
 62
     0
370
     0
100
AcDbLine
 10
74.73829
 20
959.847061
 30
0.0
 11
74.736175
 21
953.561347
 31
0.0
  0
LINE
  5
159
330
7B
100
AcDbEntity
  8
0
  6
Continuous
 62
     0
370
     0
100
AcDbLine
 10
74.740404
 20
966.132775
 30
0.0
 11
74.73829
 21
959.847061
 31
0.0
  0
LINE
  5
15A
330
7B
100
AcDbEntity
  8
0
  6
Continuous
 62
     0
370
     0
100
AcDbLine
 10
108.548131
 20
937.961347
 30
0.0
 11
113.54813
 21
937.959665
 31
0.0
  0
LINE
  5
15B
330
7B
100
AcDbEntity
  8
0
  6
Continuous
 62
     0
370
     0
100
AcDbLine
 10
103.548131
 20
937.963029
 30
0.0
 11
108.548131
 21
937.961347
 31
0.0
  0
LWPOLYLINE
  5
15C
330
7B
100
AcDbEntity
  8
0
  6
Continuous
 62
     0
370
    30
100
AcDbPolyline
 90
        3
 70
     0
 43
0.0
 10
113.233871
 20
947.706665
 10
113.062973
 20
947.640808
 10
112.749733
 20
947.530884
  0
LINE
  5
15D
330
7B
100
AcDbEntity
  8
0
  6
Continuous
 62
     0
370
     0
100
AcDbLine
 10
108.54605
 20
931.775452
 30
0.0
 11
115.688907
 21
931.773049
 31
0.0
  0
LINE
  5
15E
330
7B
100
AcDbEntity
  8
0
  6
Continuous
 62
     0
370
     0
100
AcDbLine
 10
101.403193
 20
931.777855
 30
0.0
 11
108.54605
 21
931.775452
 31
0.0
  0
LINE
  5
15F
330
7B
100
AcDbEntity
  8
0
  6
Continuous
 62
     0
370
     0
100
AcDbLine
 10
108.544113
 20
926.018487
 30
0.0
 11
114.829827
 21
926.016372
 31
0.0
  0
LINE
  5
160
330
7B
100
AcDbEntity
  8
0
  6
Continuous
 62
     0
370
     0
100
AcDbLine
 10
102.258399
 20
926.020601
 30
0.0
 11
108.544113
 21
926.018487
 31
0.0
  0
ARC
  5
161
330
7B
100
AcDbEntity
  8
0
  6
Continuous
 62
     0
370
    30
100
AcDbCircle
 10
108.555489
 20
959.835686
 30
0.0
 40
13.00000326245969
100
AcDbArc
 50
88.949379
 51
268.949379
  0
ARC
  5
162
330
7B
100
AcDbEntity
  8
0
  6
Continuous
 62
     0
370
    30
100
AcDbCircle
 10
108.555489
 20
959.835686
 30
0.0
 40
13.00000326245969
100
AcDbArc
 50
268.949379
 51
88.949379
  0
ARC
  5
163
330
7B
100
AcDbEntity
  8
0
  6
Continuous
 62
     0
370
     0
100
AcDbCircle
 10
108.555489
 20
959.835686
 30
0.0
 40
8.000003262459657
100
AcDbArc
 50
268.949379
 51
88.949379
  0
ARC
  5
164
330
7B
100
AcDbEntity
  8
0
  6
Continuous
 62
     0
370
     0
100
AcDbCircle
 10
108.555489
 20
959.835686
 30
0.0
 40
8.000003262459655
100
AcDbArc
 50
88.949379
 51
268.949379
  0
ARC
  5
165
330
7B
100
AcDbEntity
  8
0
  6
Continuous
 62
     0
370
    30
100
AcDbCircle
 10
108.555489
 20
959.835686
 30
0.0
 40
7.100003262459561
100
AcDbArc
 50
268.949379
 51
88.949379
  0
ARC
  5
166
330
7B
100
AcDbEntity
  8
0
  6
Continuous
 62
     0
370
    30
100
AcDbCircle
 10
108.555489
 20
959.835686
 30
0.0
 40
7.100003262459561
100
AcDbArc
 50
88.949379
 51
268.949379
  0
ARC
  5
167
330
7B
100
AcDbEntity
  8
0
  6
Continuous
 62
     0
370
    30
100
AcDbCircle
 10
108.555489
 20
959.835686
 30
0.0
 40
7.0
100
AcDbArc
 50
89.980699
 51
269.980727
  0
ARC
  5
168
330
7B
100
AcDbEntity
  8
0
  6
Continuous
 62
     0
370
    30
100
AcDbCircle
 10
108.555489
 20
959.835686
 30
0.0
 40
7.0
100
AcDbArc
 50
269.980727
 51
89.980699
  0
ARC
  5
169
330
7B
100
AcDbEntity
  8
0
  6
Continuous
 62
     0
370
    30
100
AcDbCircle
 10
108.547125
 20
935.045736
 30
0.0
 40
11.000079565444
100
AcDbArc
 50
269.984289
 51
304.830502
  0
ARC
  5
16A
330
7B
100
AcDbEntity
  8
0
  6
Continuous
 62
     0
370
    30
100
AcDbCircle
 10
108.547175
 20
935.045736
 30
0.0
 40
11.0000795652824
100
AcDbArc
 50
235.130953
 51
269.977166
  0
ARC
  5
16B
330
7B
100
AcDbEntity
  8
0
  6
Continuous
 62
     0
370
    30
100
AcDbCircle
 10
104.545232
 20
929.302441
 30
0.0
 40
4.000010184190385
100
AcDbArc
 50
141.767671
 51
235.130668
  0
ARC
  5
16C
330
7B
100
AcDbEntity
  8
0
  6
Continuous
 62
     0
370
    30
100
AcDbCircle
 10
112.545203
 20
929.29975
 30
0.0
 40
4.00001018418949
100
AcDbArc
 50
304.830786
 51
38.193783
  0
ARC
  5
16D
330
7B
100
AcDbEntity
  8
0
  6
Continuous
 62
     0
370
    30
100
AcDbCircle
 10
123.548216
 20
937.956332
 30
0.0
 40
10.00008659322241
100
AcDbArc
 50
179.980899
 51
218.193766
  0
ARC
  5
16E
330
7B
100
AcDbEntity
  8
0
  6
Continuous
 62
     0
370
    30
100
AcDbCircle
 10
93.548045
 20
937.966423
 30
0.0
 40
10.00008659323059
100
AcDbArc
 50
321.767688
 51
359.980555
  0
LINE
  5
16F
330
7B
100
AcDbEntity
  8
0
  6
Continuous
 62
     0
370
    30
100
AcDbLine
 10
103.551452
 20
947.835865
 30
0.0
 11
103.548131
 21
937.963029
 31
0.0
  0
LINE
  5
170
330
7B
100
AcDbEntity
  8
0
  6
Continuous
 62
     0
370
    30
100
AcDbLine
 10
113.551451
 20
947.832501
 30
0.0
 11
113.54813
 21
937.959665
 31
0.0
  0
ARC
  5
171
330
7B
100
AcDbEntity
  8
0
  6
Continuous
 62
     0
370
    30
100
AcDbCircle
 10
83.765538
 20
959.844049
 30
0.0
 40
11.00007956541749
100
AcDbArc
 50
179.984289
 51
214.830502
  0
ARC
  5
172
330
7B
100
AcDbEntity
  8
0
  6
Continuous
 62
     0
370
    30
100
AcDbCircle
 10
83.765538
 20
959.843999
 30
0.0
 40
11.00007956538615
100
AcDbArc
 50
145.130953
 51
179.977166
  0
ARC
  5
173
330
7B
100
AcDbEntity
  8
0
  6
Continuous
 62
     0
370
    30
100
AcDbCircle
 10
78.022244
 20
963.845942
 30
0.0
 40
4.000010184193306
100
AcDbArc
 50
51.767671
 51
145.130668
  0
ARC
  5
174
330
7B
100
AcDbEntity
  8
0
  6
Continuous
 62
     0
370
    30
100
AcDbCircle
 10
78.019553
 20
955.845972
 30
0.0
 40
4.000010184191806
100
AcDbArc
 50
214.830786
 51
308.193783
  0
ARC
  5
175
330
7B
100
AcDbEntity
  8
0
  6
Continuous
 62
     0
370
    30
100
AcDbCircle
 10
86.676135
 20
944.842958
 30
0.0
 40
10.0000865932386
100
AcDbArc
 50
89.980899
 51
128.193766
  0
ARC
  5
176
330
7B
100
AcDbEntity
  8
0
  6
Continuous
 62
     0
370
    30
100
AcDbCircle
 10
86.686226
 20
974.843129
 30
0.0
 40
10.00008659323647
100
AcDbArc
 50
231.767688
 51
269.980555
  0
LINE
  5
177
330
7B
100
AcDbEntity
  8
0
  6
Continuous
 62
     0
370
    30
100
AcDbLine
 10
96.555668
 20
964.839722
 30
0.0
 11
86.682832
 21
964.843043
 31
0.0
  0
LINE
  5
178
330
7B
100
AcDbEntity
  8
0
  6
Continuous
 62
     0
370
    30
100
AcDbLine
 10
96.552304
 20
954.839723
 30
0.0
 11
86.679468
 21
954.843044
 31
0.0
  0
ARC
  5
179
330
7B
100
AcDbEntity
  8
0
  6
Continuous
 62
     0
370
    30
100
AcDbCircle
 10
108.563852
 20
984.625636
 30
0.0
 40
11.00007956202982
100
AcDbArc
 50
89.984289
 51
124.830502
  0
ARC
  5
17A
330
7B
100
AcDbEntity
  8
0
  6
Continuous
 62
     0
370
    30
100
AcDbCircle
 10
108.563802
 20
984.625636
 30
0.0
 40
11.00007956447196
100
AcDbArc
 50
55.130953
 51
89.977166
  0
ARC
  5
17B
330
7B
100
AcDbEntity
  8
0
  6
Continuous
 62
     0
370
    30
100
AcDbCircle
 10
112.565745
 20
990.36893
 30
0.0
 40
4.000010184189764
100
AcDbArc
 50
321.767671
 51
55.130668
  0
ARC
  5
17C
330
7B
100
AcDbEntity
  8
0
  6
Continuous
 62
     0
370
    30
100
AcDbCircle
 10
104.565775
 20
990.371621
 30
0.0
 40
4.000010184193796
100
AcDbArc
 50
124.830786
 51
218.193783
  0
ARC
  5
17D
330
7B
100
AcDbEntity
  8
0
  6
Continuous
 62
     0
370
    30
100
AcDbCircle
 10
93.562761
 20
981.71504
 30
0.0
 40
10.00008659322011
100
AcDbArc
 50
359.980899
 51
38.193766
  0
ARC
  5
17E
330
7B
100
AcDbEntity
  8
0
  6
Continuous
 62
     0
370
    30
100
AcDbCircle
 10
123.562932
 20
981.704949
 30
0.0
 40
10.00008659322869
100
AcDbArc
 50
141.767688
 51
179.980555
  0
LINE
  5
17F
330
7B
100
AcDbEntity
  8
0
  6
Continuous
 62
     0
370
    30
100
AcDbLine
 10
113.559525
 20
971.835447
 30
0.0
 11
113.562846
 21
981.708342
 31
0.0
  0
LINE
  5
180
330
7B
100
AcDbEntity
  8
0
  6
Continuous
 62
     0
370
    30
100
AcDbLine
 10
103.559526
 20
971.83887
 30
0.0
 11
103.562847
 21
981.711706
 31
0.0
  0
ARC
  5
181
330
7B
100
AcDbEntity
  8
0
  6
Continuous
 62
     0
370
    30
100
AcDbCircle
 10
133.345439
 20
959.827322
 30
0.0
 40
11.00007956545975
100
AcDbArc
 50
359.984289
 51
34.830502
  0
ARC
  5
182
330
7B
100
AcDbEntity
  8
0
  6
Continuous
 62
     0
370
    30
100
AcDbCircle
 10
133.345439
 20
959.827372
 30
0.0
 40
11.00007956545626
100
AcDbArc
 50
325.130953
 51
359.977166
  0
ARC
  5
183
330
7B
100
AcDbEntity
  8
0
  6
Continuous
 62
     0
370
    30
100
AcDbCircle
 10
139.088733
 20
955.82543
 30
0.0
 40
4.000010184188566
100
AcDbArc
 50
231.767671
 51
325.130668
  0
ARC
  5
184
330
7B
100
AcDbEntity
  8
0
  6
Continuous
 62
     0
370
    30
100
AcDbCircle
 10
139.091424
 20
963.8254
 30
0.0
 40
4.000010184189939
100
AcDbArc
 50
34.830786
 51
128.193783
  0
ARC
  5
185
330
7B
100
AcDbEntity
  8
0
  6
Continuous
 62
     0
370
    30
100
AcDbCircle
 10
130.434843
 20
974.828414
 30
0.0
 40
10.00008659322986
100
AcDbArc
 50
269.980899
 51
308.193766
  0
ARC
  5
186
330
7B
100
AcDbEntity
  8
0
  6
Continuous
 62
     0
370
    30
100
AcDbCircle
 10
130.424751
 20
944.828242
 30
0.0
 40
10.00008659322763
100
AcDbArc
 50
51.767688
 51
89.980555
  0
LINE
  5
187
330
7B
100
AcDbEntity
  8
0
  6
Continuous
 62
     0
370
    30
100
AcDbLine
 10
120.55531
 20
954.831649
 30
0.0
 11
130.428145
 21
954.828328
 31
0.0
  0
LINE
  5
188
330
7B
100
AcDbEntity
  8
0
  6
Continuous
 62
     0
370
    30
100
AcDbLine
 10
120.558673
 20
964.831648
 30
0.0
 11
130.431509
 21
964.828327
 31
0.0
  0
ARC
  5
189
330
7B
100
AcDbEntity
  8
0
  6
Continuous
 62
     0
370
     0
100
AcDbCircle
 10
108.555489
 20
959.835686
 30
0.0
 40
15.32162671768856
100
AcDbArc
 50
199.027269
 51
250.934185
  0
ARC
  5
18A
330
7B
100
AcDbEntity
  8
0
  6
Continuous
 62
     0
370
     0
100
AcDbCircle
 10
108.555489
 20
959.835686
 30
0.0
 40
15.32162671769136
100
AcDbArc
 50
289.027269
 51
340.934185
  0
ARC
  5
18B
330
7B
100
AcDbEntity
  8
0
  6
Continuous
 62
     0
370
     0
100
AcDbCircle
 10
108.555489
 20
959.835686
 30
0.0
 40
15.32162671768808
100
AcDbArc
 50
19.027269
 51
70.934185
  0
ARC
  5
18C
330
7B
100
AcDbEntity
  8
0
  6
Continuous
 62
     0
370
     0
100
AcDbCircle
 10
108.555489
 20
959.835686
 30
0.0
 40
15.32162671768248
100
AcDbArc
 50
109.027269
 51
160.934185
  0
ARC
  5
18D
330
7B
100
AcDbEntity
  8
0
  6
Continuous
 62
     0
370
     0
100
AcDbCircle
 10
108.555489
 20
959.835686
 30
0.0
 40
23.20500521730947
100
AcDbArc
 50
102.500732
 51
167.460724
  0
ARC
  5
18E
330
7B
100
AcDbEntity
  8
0
  6
Continuous
 62
     0
370
     0
100
AcDbCircle
 10
108.555489
 20
959.835686
 30
0.0
 40
23.20500521731036
100
AcDbArc
 50
12.500732
 51
77.460724
  0
ARC
  5
18F
330
7B
100
AcDbEntity
  8
0
  6
Continuous
 62
     0
370
     0
100
AcDbCircle
 10
108.555489
 20
959.835686
 30
0.0
 40
23.20500521731036
100
AcDbArc
 50
282.500732
 51
347.460724
  0
ARC
  5
190
330
7B
100
AcDbEntity
  8
0
  6
Continuous
 62
     0
370
     0
100
AcDbCircle
 10
108.555489
 20
959.835686
 30
0.0
 40
23.20500521731121
100
AcDbArc
 50
192.500732
 51
257.460724
  0
ARC
  5
191
330
7B
100
AcDbEntity
  8
0
  6
Continuous
 62
     0
370
     0
100
AcDbCircle
 10
108.555489
 20
959.835686
 30
0.0
 40
27.32755986930972
100
AcDbArc
 50
103.084626
 51
166.876818
  0
ARC
  5
192
330
7B
100
AcDbEntity
  8
0
  6
Continuous
 62
     0
370
     0
100
AcDbCircle
 10
108.555489
 20
959.835686
 30
0.0
 40
27.3275598693114
100
AcDbArc
 50
13.084626
 51
76.876818
  0
ARC
  5
193
330
7B
100
AcDbEntity
  8
0
  6
Continuous
 62
     0
370
     0
100
AcDbCircle
 10
108.555489
 20
959.835686
 30
0.0
 40
27.32755986931026
100
AcDbArc
 50
283.084626
 51
346.876818
  0
ARC
  5
194
330
7B
100
AcDbEntity
  8
0
  6
Continuous
 62
     0
370
     0
100
AcDbCircle
 10
108.555489
 20
959.835686
 30
0.0
 40
27.32755986931026
100
AcDbArc
 50
193.084626
 51
256.876818
  0
ARC
  5
195
330
7B
100
AcDbEntity
  8
0
  6
Continuous
 62
     0
370
     0
100
AcDbCircle
 10
108.555489
 20
959.835686
 30
0.0
 40
30.00436063266042
100
AcDbArc
 50
104.839717
 51
165.121737
  0
ARC
  5
196
330
7B
100
AcDbEntity
  8
0
  6
Continuous
 62
     0
370
     0
100
AcDbCircle
 10
108.555489
 20
959.835686
 30
0.0
 40
30.00436063265824
100
AcDbArc
 50
14.839717
 51
75.121737
  0
ARC
  5
197
330
7B
100
AcDbEntity
  8
0
  6
Continuous
 62
     0
370
     0
100
AcDbCircle
 10
108.555489
 20
959.835686
 30
0.0
 40
30.00436063265871
100
AcDbArc
 50
284.839717
 51
345.121737
  0
ARC
  5
198
330
7B
100
AcDbEntity
  8
0
  6
Continuous
 62
     0
370
     0
100
AcDbCircle
 10
108.555489
 20
959.835686
 30
0.0
 40
30.00436063266007
100
AcDbArc
 50
194.839717
 51
255.121737
  0
ARC
  5
199
330
7B
100
AcDbEntity
  8
0
  6
Continuous
 62
     0
370
    30
100
AcDbCircle
 10
108.555306
 20
959.835963
 30
0.0
 40
32.50059434361613
100
AcDbArc
 50
284.001012
 51
345.960306
  0
ARC
  5
19A
330
7B
100
AcDbEntity
  8
0
  6
Continuous
 62
     0
370
    30
100
AcDbCircle
 10
108.55587
 20
959.836134
 30
0.0
 40
32.50083745762466
100
AcDbArc
 50
194.001349
 51
255.960202
  0
ARC
  5
19B
330
7B
100
AcDbEntity
  8
0
  6
Continuous
 62
     0
370
    30
100
AcDbCircle
 10
108.555215
 20
959.83591
 30
0.0
 40
32.49999424235708
100
AcDbArc
 50
104.000449
 51
165.960933
  0
ARC
  5
19C
330
7B
100
AcDbEntity
  8
0
  6
Continuous
 62
     0
370
    30
100
AcDbCircle
 10
108.55542
 20
959.835576
 30
0.0
 40
32.50045854820603
100
AcDbArc
 50
14.000898
 51
75.960617
  0
ENDBLK
  5
19E
330
7B
100
AcDbEntity
  8
0
100
AcDbBlockEnd
  0
BLOCK
  5
1EB
330
1A0
100
AcDbEntity
  8
0
100
AcDbBlockBegin
  2
b
 70
     0
 10
14.975258
 20
373.032196
 30
0.0
  3
b
  1

  0
ARC
  5
1A1
330
1A0
100
AcDbEntity
  8
0
  6
Continuous
 62
     0
370
    30
100
AcDbCircle
 10
173.055481
 20
426.132476
 30
0.0
 40
0.5000000000015346
100
AcDbArc
 50
271.749655
 51
0.000003
  0
LINE
  5
1A2
330
1A0
100
AcDbEntity
  8
0
  6
Continuous
 62
     0
370
     0
100
AcDbLine
 10
136.231244
 20
425.632706
 30
0.0
 11
173.070747
 21
425.632709
 31
0.0
  0
LINE
  5
1A3
330
1A0
100
AcDbEntity
  8
0
  6
Continuous
 62
     0
370
     0
100
AcDbLine
 10
44.040215
 20
425.632709
 30
0.0
 11
80.879711
 21
425.632706
 31
0.0
  0
LINE
  5
1A4
330
1A0
100
AcDbEntity
  8
0
  6
Continuous
 62
     0
370
     0
100
AcDbLine
 10
80.692987
 20
426.132473
 30
0.0
 11
43.555481
 21
426.132476
 31
0.0
  0
LINE
  5
1A5
330
1A0
100
AcDbEntity
  8
0
  6
Continuous
 62
     0
370
     0
100
AcDbLine
 10
173.555481
 20
426.132476
 30
0.0
 11
136.417935
 21
426.132473
 31
0.0
  0
ARC
  5
1A6
330
1A0
100
AcDbEntity
  8
0
  6
Continuous
 62
     0
370
    30
100
AcDbCircle
 10
108.555481
 20
2537.647572
 30
0.0
 40
2113.000000000889
100
AcDbArc
 50
270.744153
 51
271.749658
  0
LINE
  5
1A7
330
1A0
100
AcDbEntity
  8
0
  6
Continuous
 62
     0
370
    30
100
AcDbLine
 10
173.555481
 20
426.132476
 30
0.0
 11
173.555481
 21
435.147572
 31
0.0
  0
LINE
  5
1A8
330
1A0
100
AcDbEntity
  8
0
  6
Continuous
 62
     0
370
    30
100
AcDbLine
 10
76.055481
 20
435.147572
 30
0.0
 11
43.555481
 21
435.147572
 31
0.0
  0
LINE
  5
1A9
330
1A0
100
AcDbEntity
  8
0
  6
Continuous
 62
     0
370
    30
100
AcDbLine
 10
173.555481
 20
435.147572
 30
0.0
 11
141.055481
 21
435.147572
 31
0.0
  0
LINE
  5
1AA
330
1A0
100
AcDbEntity
  8
0
  6
Continuous
 62
     0
370
    30
100
AcDbLine
 10
43.555481
 20
435.147572
 30
0.0
 11
43.555481
 21
426.132476
 31
0.0
  0
ARC
  5
1AB
330
1A0
100
AcDbEntity
  8
0
  6
Continuous
 62
     0
370
    30
100
AcDbCircle
 10
108.555546
 20
2537.650668
 30
0.0
 40
2113.00309656706
100
AcDbArc
 50
268.250341
 51
269.255846
  0
ARC
  5
1AC
330
1A0
100
AcDbEntity
  8
0
  6
Continuous
 62
     0
370
    30
100
AcDbCircle
 10
44.055572
 20
426.132564
 30
0.0
 40
0.500091456933609
100
AcDbArc
 50
180.010159
 51
268.240183
  0
LINE
  5
1AD
330
1A0
100
AcDbEntity
  8
0
  6
Continuous
 62
     0
370
    30
100
AcDbLine
 10
86.555481
 20
380.748361
 30
0.0
 11
86.555481
 21
397.34314
 31
0.0
  0
LINE
  5
1AE
330
1A0
100
AcDbEntity
  8
0
  6
Continuous
 62
     0
370
    30
100
AcDbLine
 10
130.555481
 20
380.748361
 30
0.0
 11
130.555481
 21
397.343104
 31
0.0
  0
LWPOLYLINE
  5
1AF
330
1A0
100
AcDbEntity
  8
0
  6
Continuous
 62
     0
370
     0
100
AcDbPolyline
 90
       36
 70
     0
 43
0.0
 10
118.019768
 20
385.384827
 10
117.988136
 20
385.384827
 10
117.888962
 20
385.384827
 10
117.717369
 20
385.384827
 10
117.469749
 20
385.384827
 10
117.144127
 20
385.384827
 10
116.740425
 20
385.384827
 10
116.260643
 20
385.384827
 10
115.708916
 20
385.384827
 10
115.091446
 20
385.384827
 10
114.41629
 20
385.384827
 10
113.692978
 20
385.384827
 10
112.932121
 20
385.384827
 10
112.144875
 20
385.384827
 10
111.342453
 20
385.384827
 10
110.535667
 20
385.384827
 10
109.734512
 20
385.384827
 10
108.947899
 20
385.384827
 10
108.177155
 20
385.384827
 10
107.390678
 20
385.384827
 10
106.589539
 20
385.384827
 10
105.782623
 20
385.384827
 10
104.979912
 20
385.384827
 10
104.192215
 20
385.384827
 10
103.43074
 20
385.384827
 10
102.706657
 20
385.384827
 10
102.030571
 20
385.384827
 10
101.412056
 20
385.384827
 10
100.859169
 20
385.384827
 10
100.378143
 20
385.384827
 10
99.973152
 20
385.384827
 10
99.646217
 20
385.384827
 10
99.397285
 20
385.384827
 10
99.224403
 20
385.384827
 10
99.124001
 20
385.384827
 10
99.091194
 20
385.384827
  0
ARC
  5
1B0
330
1A0
100
AcDbEntity
  8
0
  6
Continuous
 62
     0
370
    30
100
AcDbCircle
 10
116.05548
 20
380.247558
 30
0.0
 40
5.499999956969528
100
AcDbArc
 50
5.215887
 51
69.075166
  0
LWPOLYLINE
  5
1B1
330
1A0
100
AcDbEntity
  8
0
  6
Continuous
 62
     0
370
    30
100
AcDbPolyline
 90
        5
 70
     0
 43
0.0
 10
95.578232
 20
380.747284
 10
95.587326
 20
380.716278
 10
95.614937
 20
380.626038
 10
95.662323
 20
380.477478
 10
95.740211
 20
380.247559
  0
LINE
  5
1B2
330
1A0
100
AcDbEntity
  8
0
  6
Continuous
 62
     0
370
     0
100
AcDbLine
 10
95.740208
 20
380.247557
 30
0.0
 11
101.951395
 21
380.247557
 31
0.0
  0
LINE
  5
1B3
330
1A0
100
AcDbEntity
  8
0
  6
Continuous
 62
     0
370
     0
100
AcDbLine
 10
115.180108
 20
380.247557
 30
0.0
 11
121.37222
 21
380.247557
 31
0.0
  0
ARC
  5
1B4
330
1A0
100
AcDbEntity
  8
0
  6
Continuous
 62
     0
370
    30
100
AcDbCircle
 10
112.135394
 20
383.488092
 30
0.0
 40
9.788769929612869
100
AcDbArc
 50
340.667715
 51
343.741741
  0
ARC
  5
1B5
330
1A0
100
AcDbEntity
  8
0
  6
Continuous
 62
     0
370
    30
100
AcDbCircle
 10
119.805481
 20
390.05508
 30
0.0
 40
4.999999994246823
100
AcDbArc
 50
179.631288
 51
249.075165
  0
LWPOLYLINE
  5
1B6
330
1A0
100
AcDbEntity
  8
0
  6
Continuous
 62
     0
370
     0
100
AcDbPolyline
 90
       30
 70
     0
 43
0.0
 10
114.805588
 20
390.08725
 10
114.774971
 20
390.08725
 10
114.678474
 20
390.08725
 10
114.510872
 20
390.08725
 10
114.268951
 20
390.08725
 10
113.951981
 20
390.08725
 10
113.562111
 20
390.08725
 10
113.104446
 20
390.08725
 10
112.586914
 20
390.08725
 10
112.019814
 20
390.08725
 10
111.415146
 20
390.08725
 10
110.785774
 20
390.08725
 10
110.144623
 20
390.08725
 10
109.503891
 20
390.08725
 10
108.874443
 20
390.08725
 10
108.259659
 20
390.08725
 10
107.630676
 20
390.08725
 10
106.990044
 20
390.08725
 10
106.348595
 20
390.08725
 10
105.718491
 20
390.08725
 10
105.112633
 20
390.08725
 10
104.543915
 20
390.08725
 10
104.024384
 20
390.08725
 10
103.564392
 20
390.08725
 10
103.171959
 20
390.08725
 10
102.852303
 20
390.08725
 10
102.607658
 20
390.08725
 10
102.437393
 20
390.08725
 10
102.338364
 20
390.08725
 10
102.305374
 20
390.08725
  0
LINE
  5
1B7
330
1A0
100
AcDbEntity
  8
0
  6
Continuous
 62
     0
370
    30
100
AcDbLine
 10
114.805584
 20
390.087256
 30
0.0
 11
114.817362
 21
393.747558
 31
0.0
  0
ELLIPSE
  5
1B8
330
1A0
100
AcDbEntity
  8
0
  6
Continuous
 62
     0
370
     0
100
AcDbEllipse
 10
130.429819
 20
375.747556
 30
0.0
 11
7.351698838429714E-11
 21
-4.999999999980004
 31
0.0
210
0.0
220
0.0
230
1.0
 40
0.000336
 41
-0.000000043711391
 42
3.141593109879418
  0
LINE
  5
1B9
330
1A0
100
AcDbEntity
  8
0
  6
Continuous
 62
     0
370
    30
100
AcDbLine
 10
130.429819
 20
370.747556
 30
0.0
 11
121.55548
 21
370.747556
 31
0.0
  0
LWPOLYLINE
  5
1BA
330
1A0
100
AcDbEntity
  8
0
  6
Continuous
 62
     0
370
    30
100
AcDbPolyline
 90
       24
 70
     0
 43
0.0
 10
121.372223
 20
380.247559
 10
121.27607
 20
379.964355
 10
121.167252
 20
379.623596
 10
121.052307
 20
379.231476
 10
120.937996
 20
378.794586
 10
120.829201
 20
378.316589
 10
120.731461
 20
377.801941
 10
120.651207
 20
377.256897
 10
120.594177
 20
376.688568
 10
120.563927
 20
376.105011
 10
120.560242
 20
375.515594
 10
120.583496
 20
374.92984
 10
120.635643
 20
374.357574
 10
120.713699
 20
373.807312
 10
120.80777
 20
373.285583
 10
120.913261
 20
372.79892
 10
121.027565
 20
372.353119
 10
121.143112
 20
371.95224
 10
121.253357
 20
371.600769
 10
121.35302
 20
371.30365
 10
121.436928
 20
371.065735
 10
121.500923
 20
370.891418
 10
121.541557
 20
370.784515
 10
121.555481
 20
370.747559
  0
ARC
  5
1BB
330
1A0
100
AcDbEntity
  8
0
  6
Continuous
 62
     0
370
    30
100
AcDbCircle
 10
130.429819
 20
360.747557
 30
0.0
 40
9.999999074682396
100
AcDbArc
 50
51.786787
 51
90.0
  0
ARC
  5
1BC
330
1A0
100
AcDbEntity
  8
0
  6
Continuous
 62
     0
370
     0
100
AcDbCircle
 10
-10480.800451
 20
375.747556
 30
0.0
 40
10617.41856869085
100
AcDbArc
 50
359.961454
 51
0.038546
  0
ARC
  5
1BD
330
1A0
100
AcDbEntity
  8
0
  6
Continuous
 62
     0
370
    30
100
AcDbCircle
 10
139.090073
 20
371.747555
 30
0.0
 40
3.999999630099857
100
AcDbArc
 50
231.786788
 51
325.150098
  0
ARC
  5
1BE
330
1A0
100
AcDbEntity
  8
0
  6
Continuous
 62
     0
370
     0
100
AcDbCircle
 10
-9200.953546
 20
375.747556
 30
0.0
 40
9343.32834063199
100
AcDbArc
 50
359.961454
 51
0.038546
  0
ARC
  5
1BF
330
1A0
100
AcDbEntity
  8
0
  6
Continuous
 62
     0
370
    30
100
AcDbCircle
 10
133.34551
 20
375.747555
 30
0.0
 40
11.00000004765286
100
AcDbArc
 50
325.150097
 51
327.422821
  0
ARC
  5
1C0
330
1A0
100
AcDbEntity
  8
0
  6
Continuous
 62
     0
370
     0
100
AcDbCircle
 10
108.566857
 20
375.747554
 30
0.0
 40
6.2857142856888
100
AcDbArc
 50
90.000003
 51
269.999997
  0
ARC
  5
1C1
330
1A0
100
AcDbEntity
  8
0
  6
Continuous
 62
     0
370
     0
100
AcDbCircle
 10
108.566856
 20
375.747554
 30
0.0
 40
6.2857142856888
100
AcDbArc
 50
270.000003
 51
89.999997
  0
ELLIPSE
  5
1C2
330
1A0
100
AcDbEntity
  8
0
  6
Continuous
 62
     0
370
     0
100
AcDbEllipse
 10
86.681143
 20
375.747556
 30
0.0
 11
-7.351698838429714E-11
 21
4.999999999980004
 31
0.0
210
0.0
220
0.0
230
-1.0
 40
0.000336
 41
0.0000005437124071
 42
3.141592697301184
  0
LINE
  5
1C3
330
1A0
100
AcDbEntity
  8
0
  6
Continuous
 62
     0
370
    30
100
AcDbLine
 10
86.681143
 20
370.747556
 30
0.0
 11
95.555482
 21
370.747556
 31
0.0
  0
LWPOLYLINE
  5
1C4
330
1A0
100
AcDbEntity
  8
0
  6
Continuous
 62
     0
370
    30
100
AcDbPolyline
 90
       24
 70
     0
 43
0.0
 10
95.555481
 20
370.747559
 10
95.568954
 20
370.782349
 10
95.609215
 20
370.887115
 10
95.672928
 20
371.059418
 10
95.756638
 20
371.295441
 10
95.856232
 20
371.59082
 10
95.966537
 20
371.940674
 10
96.082283
 20
372.340118
 10
96.196999
 20
372.784607
 10
96.30304
 20
373.270081
 10
96.397659
 20
373.790802
 10
96.476486
 20
374.340332
 10
96.529617
 20
374.912018
 10
96.553772
 20
375.497467
 10
96.550896
 20
376.086945
 10
96.521423
 20
376.670807
 10
96.465088
 20
377.239746
 10
96.38533
 20
377.785614
 10
96.287857
 20
378.30127
 10
96.179085
 20
378.780487
 10
96.064621
 20
379.218689
 10
95.949318
 20
379.612274
 10
95.839897
 20
379.954742
 10
95.740211
 20
380.247559
  0
ARC
  5
1C5
330
1A0
100
AcDbEntity
  8
0
  6
Continuous
 62
     0
370
    30
100
AcDbCircle
 10
86.681143
 20
360.747557
 30
0.0
 40
9.999999074944697
100
AcDbArc
 50
90.0
 51
128.213213
  0
ARC
  5
1C6
330
1A0
100
AcDbEntity
  8
0
  6
Continuous
 62
     0
370
     0
100
AcDbCircle
 10
-10536.920919
 20
375.747556
 30
0.0
 40
10617.41856891782
100
AcDbArc
 50
359.961454
 51
0.038546
  0
ARC
  5
1C7
330
1A0
100
AcDbEntity
  8
0
  6
Continuous
 62
     0
370
    30
100
AcDbCircle
 10
78.020889
 20
371.747555
 30
0.0
 40
3.999999630059096
100
AcDbArc
 50
214.849902
 51
308.213212
  0
ARC
  5
1C8
330
1A0
100
AcDbEntity
  8
0
  6
Continuous
 62
     0
370
     0
100
AcDbCircle
 10
-9268.587944
 20
375.747556
 30
0.0
 40
9343.328340521794
100
AcDbArc
 50
359.961454
 51
0.038546
  0
ARC
  5
1C9
330
1A0
100
AcDbEntity
  8
0
  6
Continuous
 62
     0
370
    30
100
AcDbCircle
 10
83.765452
 20
375.747556
 30
0.0
 40
11.00000043128177
100
AcDbArc
 50
180.0
 51
214.849903
  0
LINE
  5
1CA
330
1A0
100
AcDbEntity
  8
0
  6
Continuous
 62
     0
370
     0
100
AcDbLine
 10
108.793846
 20
363.747557
 30
0.0
 11
95.555478
 21
363.747558
 31
0.0
  0
LINE
  5
1CB
330
1A0
100
AcDbEntity
  8
0
  6
Continuous
 62
     0
370
     0
100
AcDbLine
 10
121.555484
 20
363.747558
 30
0.0
 11
108.793846
 21
363.747557
 31
0.0
  0
LINE
  5
1CC
330
1A0
100
AcDbEntity
  8
0
  6
Continuous
 62
     0
370
    30
100
AcDbLine
 10
108.702167
 20
358.747557
 30
0.0
 11
116.555484
 21
358.747558
 31
0.0
  0
LWPOLYLINE
  5
1CD
330
1A0
100
AcDbEntity
  8
0
  6
Continuous
 62
     0
370
    30
100
AcDbPolyline
 90
       18
 70
     0
 43
0.0
 10
100.555481
 20
358.747559
 10
100.584305
 20
358.747559
 10
100.674202
 20
358.747559
 10
100.829819
 20
358.747559
 10
101.054588
 20
358.747559
 10
101.350342
 20
358.747559
 10
101.717049
 20
358.747559
 10
102.152634
 20
358.747559
 10
102.652916
 20
358.747559
 10
103.2117
 20
358.747559
 10
103.82103
 20
358.747559
 10
104.471558
 20
358.747559
 10
105.152992
 20
358.747559
 10
105.854668
 20
358.747559
 10
106.565987
 20
358.747559
 10
107.276924
 20
358.747559
 10
107.978386
 20
358.747559
 10
108.702164
 20
358.747559
  0
LINE
  5
1CE
330
1A0
100
AcDbEntity
  8
0
  6
Continuous
 62
     0
370
    30
100
AcDbLine
 10
121.555481
 20
363.747558
 30
0.0
 11
121.555481
 21
370.747584
 31
0.0
  0
LINE
  5
1CF
330
1A0
100
AcDbEntity
  8
0
  6
Continuous
 62
     0
370
    30
100
AcDbLine
 10
95.555481
 20
363.747558
 30
0.0
 11
95.555481
 21
370.747584
 31
0.0
  0
ARC
  5
1D0
330
1A0
100
AcDbEntity
  8
0
  6
Continuous
 62
     0
370
    30
100
AcDbCircle
 10
100.555484
 20
363.747564
 30
0.0
 40
5.00000658181826
100
AcDbArc
 50
180.000075
 51
269.999925
  0
ARC
  5
1D1
330
1A0
100
AcDbEntity
  8
0
  6
Continuous
 62
     0
370
    30
100
AcDbCircle
 10
116.555478
 20
363.747564
 30
0.0
 40
5.000006581817878
100
AcDbArc
 50
270.000075
 51
359.999925
  0
ARC
  5
1D2
330
1A0
100
AcDbEntity
  8
0
  6
Continuous
 62
     0
370
    30
100
AcDbCircle
 10
83.766401
 20
375.747248
 30
0.0
 40
11.00095513776624
100
AcDbArc
 50
145.151612
 51
179.998398
  0
ARC
  5
1D3
330
1A0
100
AcDbEntity
  8
0
  6
Continuous
 62
     0
370
    30
100
AcDbCircle
 10
78.020891
 20
379.74754
 30
0.0
 40
4.000010773470981
100
AcDbArc
 50
51.786941
 51
145.149949
  0
ARC
  5
1D4
330
1A0
100
AcDbEntity
  8
0
  6
Continuous
 62
     0
370
    30
100
AcDbCircle
 10
86.681172
 20
390.74764
 30
0.0
 40
10.00008449769532
100
AcDbArc
 50
231.786959
 51
269.999828
  0
LINE
  5
1D5
330
1A0
100
AcDbEntity
  8
0
  6
Continuous
 62
     0
370
    30
100
AcDbLine
 10
95.578229
 20
380.747556
 30
0.0
 11
86.681143
 21
380.747556
 31
0.0
  0
CIRCLE
  5
1D6
330
1A0
100
AcDbEntity
  8
0
  6
Continuous
 62
     0
370
    30
100
AcDbCircle
 10
108.565752
 20
375.747554
 30
0.0
 40
7.99999989043227
  0
ARC
  5
1D7
330
1A0
100
AcDbEntity
  8
0
  6
Continuous
 62
     0
370
    30
100
AcDbCircle
 10
133.345534
 20
375.747556
 30
0.0
 40
10.99998090617826
100
AcDbArc
 50
327.422751
 51
34.849966
  0
ARC
  5
1D8
330
1A0
100
AcDbEntity
  8
0
  6
Continuous
 62
     0
370
    30
100
AcDbCircle
 10
139.090071
 20
379.74754
 30
0.0
 40
4.000010773477987
100
AcDbArc
 50
34.850051
 51
128.213059
  0
ARC
  5
1D9
330
1A0
100
AcDbEntity
  8
0
  6
Continuous
 62
     0
370
    30
100
AcDbCircle
 10
130.429789
 20
390.74764
 30
0.0
 40
10.00008449769332
100
AcDbArc
 50
270.000172
 51
308.213041
  0
LINE
  5
1DA
330
1A0
100
AcDbEntity
  8
0
  6
Continuous
 62
     0
370
    30
100
AcDbLine
 10
121.532706
 20
380.747556
 30
0.0
 11
130.429819
 21
380.747556
 31
0.0
  0
LINE
  5
1DB
330
1A0
100
AcDbEntity
  8
0
  6
Continuous
 62
     0
370
    30
100
AcDbLine
 10
102.305377
 20
390.087256
 30
0.0
 11
102.2936
 21
393.747558
 31
0.0
  0
ARC
  5
1DC
330
1A0
100
AcDbEntity
  8
0
  6
Continuous
 62
     0
370
    30
100
AcDbCircle
 10
97.305255
 20
390.055235
 30
0.0
 40
5.000225295551909
100
AcDbArc
 50
290.926621
 51
0.366922
  0
LWPOLYLINE
  5
1DD
330
1A0
100
AcDbEntity
  8
0
  6
Continuous
 62
     0
370
    30
100
AcDbPolyline
 90
       11
 70
     0
 43
0.0
 10
99.091194
 20
385.384827
 10
98.532654
 20
385.134827
 10
98.005234
 20
384.824249
 10
97.515686
 20
384.457031
 10
97.069908
 20
384.03772
 10
96.6735
 20
383.571442
 10
96.33139
 20
383.063995
 10
96.047676
 20
382.521729
 10
95.826012
 20
381.951294
 10
95.668709
 20
381.359772
 10
95.578217
 20
380.747131
  0
LINE
  5
1DE
330
1A0
100
AcDbEntity
  8
0
  6
Continuous
 62
     0
370
    30
100
AcDbLine
 10
93.233854
 20
393.747558
 30
0.0
 11
123.877108
 21
393.747558
 31
0.0
  0
ARC
  5
1DF
330
1A0
100
AcDbEntity
  8
0
  6
Continuous
 62
     0
370
    30
100
AcDbCircle
 10
123.877108
 20
401.747558
 30
0.0
 40
7.999999999936075
100
AcDbArc
 50
270.0
 51
350.204853
  0
LINE
  5
1E0
330
1A0
100
AcDbEntity
  8
0
  6
Continuous
 62
     0
370
     0
100
AcDbLine
 10
131.760486
 20
400.386549
 30
0.0
 11
85.350476
 21
400.386549
 31
0.0
  0
LINE
  5
1E1
330
1A0
100
AcDbEntity
  8
0
  6
Continuous
 62
     0
370
    30
100
AcDbLine
 10
131.760486
 20
400.386549
 30
0.0
 11
135.883041
 21
424.265654
 31
0.0
  0
LINE
  5
1E2
330
1A0
100
AcDbEntity
  8
0
  6
Continuous
 62
     0
370
     0
100
AcDbLine
 10
135.883041
 20
424.265654
 30
0.0
 11
81.227921
 21
424.265654
 31
0.0
  0
ARC
  5
1E3
330
1A0
100
AcDbEntity
  8
0
  6
Continuous
 62
     0
370
    30
100
AcDbCircle
 10
144.751842
 20
422.73452
 30
0.0
 40
8.999999999964073
100
AcDbArc
 50
133.472
 51
170.204853
  0
LINE
  5
1E4
330
1A0
100
AcDbEntity
  8
0
  6
Continuous
 62
     0
370
     0
100
AcDbLine
 10
138.559842
 20
429.265916
 30
0.0
 11
78.55112
 21
429.265916
 31
0.0
  0
ARC
  5
1E5
330
1A0
100
AcDbEntity
  8
0
  6
Continuous
 62
     0
370
    30
100
AcDbCircle
 10
133.055842
 20
435.071602
 30
0.0
 40
7.999999999936097
100
AcDbArc
 50
313.472
 51
0.544002
  0
LINE
  5
1E6
330
1A0
100
AcDbEntity
  8
0
  6
Continuous
 62
     0
370
    30
100
AcDbLine
 10
141.055481
 20
435.147558
 30
0.0
 11
76.055481
 21
435.147558
 31
0.0
  0
ARC
  5
1E7
330
1A0
100
AcDbEntity
  8
0
  6
Continuous
 62
     0
370
    30
100
AcDbCircle
 10
84.055225
 20
435.071646
 30
0.0
 40
8.00010467575784
100
AcDbArc
 50
179.456324
 51
226.527674
  0
ARC
  5
1E8
330
1A0
100
AcDbEntity
  8
0
  6
Continuous
 62
     0
370
    30
100
AcDbCircle
 10
72.359053
 20
422.734484
 30
0.0
 40
9.00007205285917
100
AcDbArc
 50
9.795299
 51
46.527848
  0
LINE
  5
1E9
330
1A0
100
AcDbEntity
  8
0
  6
Continuous
 62
     0
370
    30
100
AcDbLine
 10
85.350476
 20
400.386549
 30
0.0
 11
81.227921
 21
424.265654
 31
0.0
  0
ARC
  5
1EA
330
1A0
100
AcDbEntity
  8
0
  6
Continuous
 62
     0
370
    30
100
AcDbCircle
 10
93.233856
 20
401.747559
 30
0.0
 40
8.00000172429744
100
AcDbArc
 50
189.795157
 51
269.992608
  0
ENDBLK
  5
1EC
330
1A0
100
AcDbEntity
  8
0
100
AcDbBlockEnd
  0
BLOCK
  5
2DB
330
1EE
100
AcDbEntity
  8
0
100
AcDbBlockBegin
  2
c
 70
     0
 10
66.031654
 20
96.550018
 30
0.0
  3
c
  1

  0
LWPOLYLINE
  5
1EF
330
1EE
100
AcDbEntity
  8
0
  6
Continuous
 62
     0
370
     0
100
AcDbPolyline
 90
       19
 70
     0
 43
0.0
 10
341.216553
 20
769.299927
 10
341.216553
 20
769.270203
 10
341.216553
 20
769.177002
 10
341.216553
 20
769.015869
 10
341.216553
 20
768.783386
 10
341.216553
 20
768.4776
 10
341.216553
 20
768.098206
 10
341.216553
 20
767.646667
 10
341.216553
 20
767.126404
 10
341.216553
 20
766.542725
 10
341.216553
 20
765.902527
 10
341.216553
 20
765.214172
 10
341.216553
 20
764.487122
 10
341.216553
 20
763.731445
 10
341.216553
 20
762.957458
 10
341.216553
 20
762.175171
 10
341.216553
 20
761.394165
 10
341.216553
 20
760.622986
 10
341.216553
 20
759.838867
  0
LINE
  5
1F0
330
1EE
100
AcDbEntity
  8
0
  6
Continuous
 62
     0
370
     0
100
AcDbLine
 10
341.216554
 20
759.838839
 30
0.0
 11
341.216553
 21
750.37137
 31
0.0
  0
LWPOLYLINE
  5
1F1
330
1EE
100
AcDbEntity
  8
0
  6
Continuous
 62
     0
370
    30
100
AcDbPolyline
 90
        5
 70
     0
 43
0.0
 10
345.854095
 20
746.858398
 10
345.885101
 20
746.867493
 10
345.975342
 20
746.895081
 10
346.123901
 20
746.942505
 10
346.353821
 20
747.020386
  0
LINE
  5
1F2
330
1EE
100
AcDbEntity
  8
0
  6
Continuous
 62
     0
370
     0
100
AcDbLine
 10
346.353827
 20
747.020383
 30
0.0
 11
346.353827
 21
753.23157
 31
0.0
  0
LINE
  5
1F3
330
1EE
100
AcDbEntity
  8
0
  6
Continuous
 62
     0
370
     0
100
AcDbLine
 10
346.353827
 20
766.460282
 30
0.0
 11
346.353827
 21
772.652394
 31
0.0
  0
LWPOLYLINE
  5
1F4
330
1EE
100
AcDbEntity
  8
0
  6
Continuous
 62
     0
370
    30
100
AcDbPolyline
 90
        5
 70
     0
 43
0.0
 10
346.353821
 20
772.652405
 10
346.143097
 20
772.723694
 10
345.988342
 20
772.772888
 10
345.891907
 20
772.802185
 10
345.854095
 20
772.812927
  0
LWPOLYLINE
  5
1F5
330
1EE
100
AcDbEntity
  8
0
  6
Continuous
 62
     0
370
     0
100
AcDbPolyline
 90
       16
 70
     0
 43
0.0
 10
336.51413
 20
766.085754
 10
336.51413
 20
766.057373
 10
336.51413
 20
765.96814
 10
336.51413
 20
765.813171
 10
336.51413
 20
765.589478
 10
336.51413
 20
765.296082
 10
336.51413
 20
764.934448
 10
336.51413
 20
764.508606
 10
336.51413
 20
764.025146
 10
336.51413
 20
763.492615
 10
336.51413
 20
762.921448
 10
336.51413
 20
762.322876
 10
336.51413
 20
761.708618
 10
336.51413
 20
761.089844
 10
336.51413
 20
760.476929
 10
336.51413
 20
759.837769
  0
LINE
  5
1F6
330
1EE
100
AcDbEntity
  8
0
  6
Continuous
 62
     0
370
     0
100
AcDbLine
 10
336.514129
 20
759.837758
 30
0.0
 11
336.514128
 21
753.585552
 31
0.0
  0
ELLIPSE
  5
1F7
330
1EE
100
AcDbEntity
  8
0
  6
Continuous
 62
     0
370
     0
100
AcDbEllipse
 10
350.853829
 20
781.709994
 30
0.0
 11
4.999999999980004
 21
7.351698838451571E-11
 31
0.0
210
0.0
220
0.0
230
1.0
 40
0.000336
 41
-0.000000043711391
 42
3.141593109881531
  0
LINE
  5
1F8
330
1EE
100
AcDbEntity
  8
0
  6
Continuous
 62
     0
370
    30
100
AcDbLine
 10
355.853829
 20
781.709994
 30
0.0
 11
355.853829
 21
772.835654
 31
0.0
  0
LWPOLYLINE
  5
1F9
330
1EE
100
AcDbEntity
  8
0
  6
Continuous
 62
     0
370
    30
100
AcDbPolyline
 90
       24
 70
     0
 43
0.0
 10
346.353821
 20
772.652405
 10
346.637024
 20
772.556213
 10
346.977814
 20
772.447449
 10
347.369904
 20
772.332458
 10
347.806793
 20
772.218201
 10
348.284821
 20
772.109375
 10
348.799438
 20
772.011658
 10
349.344482
 20
771.931396
 10
349.912811
 20
771.874329
 10
350.496368
 20
771.844116
 10
351.085815
 20
771.840393
 10
351.671539
 20
771.863647
 10
352.243805
 20
771.915833
 10
352.794098
 20
771.993896
 10
353.315796
 20
772.087952
 10
353.80246
 20
772.19342
 10
354.24826
 20
772.307739
 10
354.649139
 20
772.423279
 10
355.00061
 20
772.533508
 10
355.297729
 20
772.633179
 10
355.535645
 20
772.717102
 10
355.709961
 20
772.781067
 10
355.816864
 20
772.821716
 10
355.853821
 20
772.835632
  0
ARC
  5
1FA
330
1EE
100
AcDbEntity
  8
0
  6
Continuous
 62
     0
370
    30
100
AcDbCircle
 10
365.853828
 20
781.709994
 30
0.0
 40
9.999999074681249
100
AcDbArc
 50
141.786787
 51
180.0
  0
ARC
  5
1FB
330
1EE
100
AcDbEntity
  8
0
  6
Continuous
 62
     0
370
     0
100
AcDbCircle
 10
350.853829
 20
-9829.520278
 30
0.0
 40
10617.41856946656
100
AcDbArc
 50
89.961454
 51
90.038546
  0
ARC
  5
1FC
330
1EE
100
AcDbEntity
  8
0
  6
Continuous
 62
     0
370
    30
100
AcDbCircle
 10
354.853829
 20
790.370247
 30
0.0
 40
3.999999630099516
100
AcDbArc
 50
321.786788
 51
55.150098
  0
ARC
  5
1FD
330
1EE
100
AcDbEntity
  8
0
  6
Continuous
 62
     0
370
     0
100
AcDbCircle
 10
350.853829
 20
-8549.673372
 30
0.0
 40
9343.328340536542
100
AcDbArc
 50
89.961454
 51
90.038546
  0
ARC
  5
1FE
330
1EE
100
AcDbEntity
  8
0
  6
Continuous
 62
     0
370
    30
100
AcDbCircle
 10
350.853829
 20
784.625684
 30
0.0
 40
11.00000004688495
100
AcDbArc
 50
55.150097
 51
57.422821
  0
ARC
  5
1FF
330
1EE
100
AcDbEntity
  8
0
  6
Continuous
 62
     0
370
     0
100
AcDbCircle
 10
350.85383
 20
759.847031
 30
0.0
 40
6.28571428568883
100
AcDbArc
 50
180.000003
 51
359.999997
  0
ARC
  5
200
330
1EE
100
AcDbEntity
  8
0
  6
Continuous
 62
     0
370
     0
100
AcDbCircle
 10
350.85383
 20
759.84703
 30
0.0
 40
6.28571428568883
100
AcDbArc
 50
0.000003
 51
179.999997
  0
ELLIPSE
  5
201
330
1EE
100
AcDbEntity
  8
0
  6
Continuous
 62
     0
370
     0
100
AcDbEllipse
 10
350.853829
 20
737.961317
 30
0.0
 11
-4.999999999980004
 21
-7.351698838451571E-11
 31
0.0
210
0.0
220
0.0
230
-1.0
 40
0.000336
 41
0.0000005437145194
 42
3.141592697301184
  0
LINE
  5
202
330
1EE
100
AcDbEntity
  8
0
  6
Continuous
 62
     0
370
    30
100
AcDbLine
 10
355.853829
 20
737.961317
 30
0.0
 11
355.853829
 21
746.835656
 31
0.0
  0
LWPOLYLINE
  5
203
330
1EE
100
AcDbEntity
  8
0
  6
Continuous
 62
     0
370
    30
100
AcDbPolyline
 90
       24
 70
     0
 43
0.0
 10
355.853821
 20
746.835632
 10
355.819031
 20
746.849121
 10
355.714294
 20
746.889404
 10
355.541962
 20
746.953125
 10
355.305969
 20
747.036804
 10
355.010559
 20
747.136414
 10
354.660706
 20
747.246704
 10
354.261261
 20
747.362488
 10
353.816772
 20
747.477173
 10
353.331299
 20
747.583191
 10
352.810577
 20
747.677856
 10
352.261078
 20
747.756653
 10
351.689362
 20
747.809814
 10
351.103912
 20
747.833923
 10
350.514435
 20
747.831055
 10
349.930573
 20
747.801575
 10
349.361633
 20
747.745239
 10
348.815765
 20
747.665527
 10
348.30011
 20
747.568054
 10
347.820892
 20
747.45929
 10
347.38269
 20
747.344788
 10
346.989105
 20
747.229492
 10
346.646637
 20
747.120056
 10
346.353821
 20
747.020386
  0
ARC
  5
204
330
1EE
100
AcDbEntity
  8
0
  6
Continuous
 62
     0
370
    30
100
AcDbCircle
 10
365.853828
 20
737.961317
 30
0.0
 40
9.999999074945443
100
AcDbArc
 50
180.0
 51
218.213213
  0
ARC
  5
205
330
1EE
100
AcDbEntity
  8
0
  6
Continuous
 62
     0
370
     0
100
AcDbCircle
 10
350.853829
 20
-9885.640745
 30
0.0
 40
10617.41856896548
100
AcDbArc
 50
89.961454
 51
90.038546
  0
ARC
  5
206
330
1EE
100
AcDbEntity
  8
0
  6
Continuous
 62
     0
370
    30
100
AcDbCircle
 10
354.853829
 20
729.301063
 30
0.0
 40
3.999999630058425
100
AcDbArc
 50
304.849902
 51
38.213212
  0
ARC
  5
207
330
1EE
100
AcDbEntity
  8
0
  6
Continuous
 62
     0
370
     0
100
AcDbCircle
 10
350.853829
 20
-8617.30777
 30
0.0
 40
9343.328340537126
100
AcDbArc
 50
89.961454
 51
90.038546
  0
ARC
  5
208
330
1EE
100
AcDbEntity
  8
0
  6
Continuous
 62
     0
370
    30
100
AcDbCircle
 10
350.853829
 20
735.045627
 30
0.0
 40
11.00000043128459
100
AcDbArc
 50
270.0
 51
304.849903
  0
LWPOLYLINE
  5
209
330
1EE
100
AcDbEntity
  8
0
  6
Continuous
 62
     0
370
     0
100
AcDbPolyline
 90
       42
 70
     0
 43
0.0
 10
362.853821
 20
772.833496
 10
362.853821
 20
772.818359
 10
362.853821
 20
772.736755
 10
362.853821
 20
772.584167
 10
362.853821
 20
772.356995
 10
362.853821
 20
772.052551
 10
362.853821
 20
771.669495
 10
362.853821
 20
771.208008
 10
362.853821
 20
770.669678
 10
362.853821
 20
770.057678
 10
362.853821
 20
769.37677
 10
362.853821
 20
768.633118
 10
362.853821
 20
767.834045
 10
362.853821
 20
766.988037
 10
362.853821
 20
766.104126
 10
362.853821
 20
765.191895
 10
362.853821
 20
764.260925
 10
362.853821
 20
763.320557
 10
362.853821
 20
762.379761
 10
362.853821
 20
761.446716
 10
362.853821
 20
760.528809
 10
362.853821
 20
759.626099
 10
362.853821
 20
758.705994
 10
362.853821
 20
757.768127
 10
362.853821
 20
756.819763
 10
362.853821
 20
755.869019
 10
362.853821
 20
754.924744
 10
362.853821
 20
753.996216
 10
362.853821
 20
753.09314
 10
362.853821
 20
752.225037
 10
362.853821
 20
751.401306
 10
362.853821
 20
750.630493
 10
362.853821
 20
749.920288
 10
362.853821
 20
749.2771
 10
362.853821
 20
748.706055
 10
362.853821
 20
748.210632
 10
362.853821
 20
747.792908
 10
362.853821
 20
747.453247
 10
362.853821
 20
747.190735
 10
362.853821
 20
747.003113
 10
362.853821
 20
746.886902
 10
362.853821
 20
746.83783
  0
LINE
  5
20A
330
1EE
100
AcDbEntity
  8
0
  6
Continuous
 62
     0
370
    30
100
AcDbLine
 10
367.853827
 20
751.836997
 30
0.0
 11
367.853827
 21
767.834314
 31
0.0
  0
LINE
  5
20B
330
1EE
100
AcDbEntity
  8
0
  6
Continuous
 62
     0
370
    30
100
AcDbLine
 10
362.853827
 20
746.835655
 30
0.0
 11
355.8538
 21
746.835655
 31
0.0
  0
LINE
  5
20C
330
1EE
100
AcDbEntity
  8
0
  6
Continuous
 62
     0
370
    30
100
AcDbLine
 10
362.853827
 20
772.835655
 30
0.0
 11
355.8538
 21
772.835655
 31
0.0
  0
ARC
  5
20D
330
1EE
100
AcDbEntity
  8
0
  6
Continuous
 62
     0
370
    30
100
AcDbCircle
 10
362.85382
 20
767.835652
 30
0.0
 40
5.000006581817457
100
AcDbArc
 50
0.000075
 51
89.999925
  0
ARC
  5
20E
330
1EE
100
AcDbEntity
  8
0
  6
Continuous
 62
     0
370
    30
100
AcDbCircle
 10
362.85382
 20
751.835659
 30
0.0
 40
5.00000658181826
100
AcDbArc
 50
270.000075
 51
359.999925
  0
ARC
  5
20F
330
1EE
100
AcDbEntity
  8
0
  6
Continuous
 62
     0
370
    30
100
AcDbCircle
 10
350.854136
 20
735.046575
 30
0.0
 40
11.0009551377663
100
AcDbArc
 50
235.151612
 51
269.998398
  0
ARC
  5
210
330
1EE
100
AcDbEntity
  8
0
  6
Continuous
 62
     0
370
    30
100
AcDbCircle
 10
346.853844
 20
729.301065
 30
0.0
 40
4.000010773470734
100
AcDbArc
 50
141.786941
 51
235.149949
  0
ARC
  5
211
330
1EE
100
AcDbEntity
  8
0
  6
Continuous
 62
     0
370
    30
100
AcDbCircle
 10
335.853744
 20
737.961347
 30
0.0
 40
10.00008449769507
100
AcDbArc
 50
321.786959
 51
359.999828
  0
LINE
  5
212
330
1EE
100
AcDbEntity
  8
0
  6
Continuous
 62
     0
370
    30
100
AcDbLine
 10
345.853829
 20
746.858403
 30
0.0
 11
345.853829
 21
737.961317
 31
0.0
  0
CIRCLE
  5
213
330
1EE
100
AcDbEntity
  8
0
  6
Continuous
 62
     0
370
    30
100
AcDbCircle
 10
350.85383
 20
759.845926
 30
0.0
 40
7.999999890432232
  0
ARC
  5
214
330
1EE
100
AcDbEntity
  8
0
  6
Continuous
 62
     0
370
    30
100
AcDbCircle
 10
350.853828
 20
784.625708
 30
0.0
 40
10.99998090617806
100
AcDbArc
 50
57.422751
 51
124.849966
  0
ARC
  5
215
330
1EE
100
AcDbEntity
  8
0
  6
Continuous
 62
     0
370
    30
100
AcDbCircle
 10
346.853844
 20
790.370245
 30
0.0
 40
4.000010773477221
100
AcDbArc
 50
124.850051
 51
218.213059
  0
ARC
  5
216
330
1EE
100
AcDbEntity
  8
0
  6
Continuous
 62
     0
370
    30
100
AcDbCircle
 10
335.853744
 20
781.709964
 30
0.0
 40
10.00008449769332
100
AcDbArc
 50
0.000172
 51
38.213041
  0
LINE
  5
217
330
1EE
100
AcDbEntity
  8
0
  6
Continuous
 62
     0
370
    30
100
AcDbLine
 10
345.853829
 20
772.812907
 30
0.0
 11
345.853829
 21
781.709994
 31
0.0
  0
LINE
  5
218
330
1EE
100
AcDbEntity
  8
0
  6
Continuous
 62
     0
370
    30
100
AcDbLine
 10
336.514128
 20
753.585552
 30
0.0
 11
332.853827
 21
753.573774
 31
0.0
  0
LINE
  5
219
330
1EE
100
AcDbEntity
  8
0
  6
Continuous
 62
     0
370
    30
100
AcDbLine
 10
336.514128
 20
766.085759
 30
0.0
 11
332.853827
 21
766.097536
 31
0.0
  0
ARC
  5
21A
330
1EE
100
AcDbEntity
  8
0
  6
Continuous
 62
     0
370
    30
100
AcDbCircle
 10
336.54615
 20
748.585429
 30
0.0
 40
5.000225295552327
100
AcDbArc
 50
20.926621
 51
90.366922
  0
ARC
  5
21B
330
1EE
100
AcDbEntity
  8
0
  6
Continuous
 62
     0
370
    30
100
AcDbCircle
 10
336.54615
 20
771.085882
 30
0.0
 40
5.000225295552076
100
AcDbArc
 50
269.633078
 51
339.073379
  0
LWPOLYLINE
  5
21C
330
1EE
100
AcDbEntity
  8
0
  6
Continuous
 62
     0
370
    30
100
AcDbPolyline
 90
       11
 70
     0
 43
0.0
 10
341.216553
 20
769.299927
 10
341.466583
 20
769.858459
 10
341.777161
 20
770.385925
 10
342.144348
 20
770.875427
 10
342.56369
 20
771.321228
 10
343.029938
 20
771.717651
 10
343.537384
 20
772.059753
 10
344.079651
 20
772.343445
 10
344.650085
 20
772.565125
 10
345.241608
 20
772.722412
 10
345.854248
 20
772.812927
  0
LWPOLYLINE
  5
21D
330
1EE
100
AcDbEntity
  8
0
  6
Continuous
 62
     0
370
    30
100
AcDbPolyline
 90
       11
 70
     0
 43
0.0
 10
341.216553
 20
750.371399
 10
341.466583
 20
749.812805
 10
341.777161
 20
749.2854
 10
342.144348
 20
748.795837
 10
342.56369
 20
748.350098
 10
343.029938
 20
747.953674
 10
343.537384
 20
747.611572
 10
344.079651
 20
747.327881
 10
344.650085
 20
747.106201
 10
345.241608
 20
746.948853
 10
345.854248
 20
746.858398
  0
LINE
  5
21E
330
1EE
100
AcDbEntity
  8
0
  6
Continuous
 62
     0
370
    30
100
AcDbLine
 10
332.853827
 20
744.514028
 30
0.0
 11
332.853828
 21
759.835655
 31
0.0
  0
LINE
  5
21F
330
1EE
100
AcDbEntity
  8
0
  6
Continuous
 62
     0
370
    30
100
AcDbLine
 10
332.853828
 20
759.835655
 30
0.0
 11
332.853827
 21
775.157282
 31
0.0
  0
LINE
  5
220
330
1EE
100
AcDbEntity
  8
0
  6
Continuous
 62
     0
370
     0
100
AcDbLine
 10
326.214835
 20
783.04066
 30
0.0
 11
326.214836
 21
759.835655
 31
0.0
  0
LINE
  5
221
330
1EE
100
AcDbEntity
  8
0
  6
Continuous
 62
     0
370
     0
100
AcDbLine
 10
326.214836
 20
759.835655
 30
0.0
 11
326.214835
 21
736.63065
 31
0.0
  0
LINE
  5
222
330
1EE
100
AcDbEntity
  8
0
  6
Continuous
 62
     0
370
     0
100
AcDbLine
 10
302.33573
 20
787.163215
 30
0.0
 11
302.335731
 21
759.835655
 31
0.0
  0
LINE
  5
223
330
1EE
100
AcDbEntity
  8
0
  6
Continuous
 62
     0
370
     0
100
AcDbLine
 10
302.335731
 20
759.835655
 30
0.0
 11
302.33573
 21
732.508095
 31
0.0
  0
LINE
  5
224
330
1EE
100
AcDbEntity
  8
0
  6
Continuous
 62
     0
370
     0
100
AcDbLine
 10
297.335468
 20
789.840016
 30
0.0
 11
297.33547
 21
759.835655
 31
0.0
  0
LINE
  5
225
330
1EE
100
AcDbEntity
  8
0
  6
Continuous
 62
     0
370
     0
100
AcDbLine
 10
297.33547
 20
759.835655
 30
0.0
 11
297.335468
 21
729.831295
 31
0.0
  0
LINE
  5
226
330
1EE
100
AcDbEntity
  8
0
  6
Continuous
 62
     0
370
    30
100
AcDbLine
 10
291.453827
 20
792.335655
 30
0.0
 11
291.453828
 21
759.835655
 31
0.0
  0
LINE
  5
227
330
1EE
100
AcDbEntity
  8
0
  6
Continuous
 62
     0
370
    30
100
AcDbLine
 10
291.453828
 20
759.835655
 30
0.0
 11
291.453827
 21
727.335655
 31
0.0
  0
ARC
  5
228
330
1EE
100
AcDbEntity
  8
0
  6
Continuous
 62
     0
370
    30
100
AcDbCircle
 10
291.529738
 20
735.3354
 30
0.0
 40
8.00010467575851
100
AcDbArc
 50
269.456324
 51
316.527674
  0
ARC
  5
229
330
1EE
100
AcDbEntity
  8
0
  6
Continuous
 62
     0
370
    30
100
AcDbCircle
 10
291.529738
 20
784.335911
 30
0.0
 40
8.00010467575644
100
AcDbArc
 50
43.472326
 51
90.543676
  0
ARC
  5
22A
330
1EE
100
AcDbEntity
  8
0
  6
Continuous
 62
     0
370
    30
100
AcDbCircle
 10
303.8669
 20
796.032083
 30
0.0
 40
9.000072052857856
100
AcDbArc
 50
223.472152
 51
260.204701
  0
ARC
  5
22B
330
1EE
100
AcDbEntity
  8
0
  6
Continuous
 62
     0
370
    30
100
AcDbCircle
 10
303.8669
 20
723.639228
 30
0.0
 40
9.000072052860524
100
AcDbArc
 50
99.795299
 51
136.527848
  0
LINE
  5
22C
330
1EE
100
AcDbEntity
  8
0
  6
Continuous
 62
     0
370
    30
100
AcDbLine
 10
326.214835
 20
736.63065
 30
0.0
 11
302.33573
 21
732.508095
 31
0.0
  0
LINE
  5
22D
330
1EE
100
AcDbEntity
  8
0
  6
Continuous
 62
     0
370
    30
100
AcDbLine
 10
326.214835
 20
783.04066
 30
0.0
 11
302.33573
 21
787.163215
 31
0.0
  0
ARC
  5
22E
330
1EE
100
AcDbEntity
  8
0
  6
Continuous
 62
     0
370
    30
100
AcDbCircle
 10
324.853825
 20
744.51403
 30
0.0
 40
8.000001724297398
100
AcDbArc
 50
279.795157
 51
359.992608
  0
ARC
  5
22F
330
1EE
100
AcDbEntity
  8
0
  6
Continuous
 62
     0
370
    30
100
AcDbCircle
 10
324.853825
 20
775.15728
 30
0.0
 40
8.00000172429758
100
AcDbArc
 50
0.007392
 51
80.204843
  0
LINE
  5
230
330
1EE
100
AcDbEntity
  8
0
  6
Continuous
 62
     0
370
     0
100
AcDbLine
 10
300.96869
 20
575.320389
 30
0.0
 11
300.968692
 21
639.835655
 31
0.0
  0
LINE
  5
231
330
1EE
100
AcDbEntity
  8
0
  6
Continuous
 62
     0
370
     0
100
AcDbLine
 10
300.968692
 20
639.835655
 30
0.0
 11
300.96869
 21
704.350921
 31
0.0
  0
LINE
  5
232
330
1EE
100
AcDbEntity
  8
0
  6
Continuous
 62
     0
370
     0
100
AcDbLine
 10
300.468923
 20
704.835655
 30
0.0
 11
300.468926
 21
639.835655
 31
0.0
  0
LINE
  5
233
330
1EE
100
AcDbEntity
  8
0
  6
Continuous
 62
     0
370
     0
100
AcDbLine
 10
300.468926
 20
639.835655
 30
0.0
 11
300.468923
 21
574.835655
 31
0.0
  0
LINE
  5
234
330
1EE
100
AcDbEntity
  8
0
  6
Continuous
 62
     0
370
    30
100
AcDbLine
 10
301.866139
 20
620.585715
 30
0.0
 11
301.86614
 21
639.835655
 31
0.0
  0
LINE
  5
235
330
1EE
100
AcDbEntity
  8
0
  6
Continuous
 62
     0
370
     0
100
AcDbLine
 10
301.86614
 20
639.835655
 30
0.0
 11
301.866139
 21
659.085595
 31
0.0
  0
LINE
  5
236
330
1EE
100
AcDbEntity
  8
0
  6
Continuous
 62
     0
370
    30
100
AcDbLine
 10
291.453827
 20
704.835655
 30
0.0
 11
291.453827
 21
639.835623
 31
0.0
  0
LINE
  5
237
330
1EE
100
AcDbEntity
  8
0
  6
Continuous
 62
     0
370
    30
100
AcDbLine
 10
291.453827
 20
639.835623
 30
0.0
 11
291.453827
 21
574.835655
 31
0.0
  0
LWPOLYLINE
  5
238
330
1EE
100
AcDbEntity
  8
0
  6
Continuous
 62
     0
370
     0
100
AcDbPolyline
 90
       10
 70
     0
 43
0.0
 10
294.854095
 20
574.835632
 10
294.886505
 20
574.836731
 10
294.980652
 20
574.839661
 10
295.132355
 20
574.844055
 10
295.337158
 20
574.849487
 10
295.589661
 20
574.855286
 10
295.882782
 20
574.860718
 10
296.207855
 20
574.865295
 10
296.555359
 20
574.868347
 10
296.953644
 20
574.869568
  0
LWPOLYLINE
  5
239
330
1EE
100
AcDbEntity
  8
0
  6
Continuous
 62
     0
370
     0
100
AcDbPolyline
 90
       10
 70
     0
 43
0.0
 10
296.953644
 20
574.869568
 10
297.315735
 20
574.868591
 10
297.667084
 20
574.865662
 10
297.997131
 20
574.861206
 10
298.295898
 20
574.855713
 10
298.554565
 20
574.849854
 10
298.764801
 20
574.84436
 10
298.920746
 20
574.839783
 10
299.018433
 20
574.836792
 10
299.053833
 20
574.835632
  0
LINE
  5
23A
330
1EE
100
AcDbEntity
  8
0
  6
Continuous
 62
     0
370
    30
100
AcDbLine
 10
299.053828
 20
574.835655
 30
0.0
 11
294.85414
 21
574.835655
 31
0.0
  0
LINE
  5
23B
330
1EE
100
AcDbEntity
  8
0
  6
Continuous
 62
     0
370
    30
100
AcDbLine
 10
291.453827
 20
704.835655
 30
0.0
 11
300.468923
 21
704.835655
 31
0.0
  0
LINE
  5
23C
330
1EE
100
AcDbEntity
  8
0
  6
Continuous
 62
     0
370
    30
100
AcDbLine
 10
291.453827
 20
574.835655
 30
0.0
 11
294.854211
 21
574.835655
 31
0.0
  0
LINE
  5
23D
330
1EE
100
AcDbEntity
  8
0
  6
Continuous
 62
     0
370
    30
100
AcDbLine
 10
299.053828
 20
574.835655
 30
0.0
 11
300.468923
 21
574.835655
 31
0.0
  0
ARC
  5
23E
330
1EE
100
AcDbEntity
  8
0
  6
Continuous
 62
     0
370
    30
100
AcDbCircle
 10
-1811.046882
 20
639.835669
 30
0.0
 40
2113.000708955717
100
AcDbArc
 50
358.250341
 51
359.478014
  0
ARC
  5
23F
330
1EE
100
AcDbEntity
  8
0
  6
Continuous
 62
     0
370
    30
100
AcDbCircle
 10
-1811.046827
 20
639.835642
 30
0.0
 40
2113.000654196268
100
AcDbArc
 50
0.521986
 51
1.749659
  0
ARC
  5
240
330
1EE
100
AcDbEntity
  8
0
  6
Continuous
 62
     0
370
    30
100
AcDbCircle
 10
300.468834
 20
575.335747
 30
0.0
 40
0.5000914569321467
100
AcDbArc
 50
270.010159
 51
358.240183
  0
ARC
  5
241
330
1EE
100
AcDbEntity
  8
0
  6
Continuous
 62
     0
370
    30
100
AcDbCircle
 10
300.468834
 20
704.335564
 30
0.0
 40
0.5000914569297963
100
AcDbArc
 50
1.759817
 51
89.989841
  0
LINE
  5
242
330
1EE
100
AcDbEntity
  8
0
  6
Continuous
 62
     0
370
    30
100
AcDbLine
 10
354.673828
 20
618.335655
 30
0.0
 11
354.673828
 21
661.335655
 31
0.0
  0
LINE
  5
243
330
1EE
100
AcDbEntity
  8
0
  6
Continuous
 62
     0
370
    30
100
AcDbLine
 10
354.673828
 20
618.335655
 30
0.0
 11
354.173828
 21
617.835655
 31
0.0
  0
LWPOLYLINE
  5
244
330
1EE
100
AcDbEntity
  8
0
  6
Continuous
 62
     0
370
    30
100
AcDbPolyline
 90
       53
 70
     0
 43
0.0
 10
354.173828
 20
617.835632
 10
354.173828
 20
617.875854
 10
354.173828
 20
617.996155
 10
354.173828
 20
618.195984
 10
354.173828
 20
618.474915
 10
354.173828
 20
618.831848
 10
354.173828
 20
619.265259
 10
354.173828
 20
619.773804
 10
354.173828
 20
620.355591
 10
354.173828
 20
621.008362
 10
354.173828
 20
621.729797
 10
354.173828
 20
622.517456
 10
354.173828
 20
623.368164
 10
354.173828
 20
624.278992
 10
354.173828
 20
625.246643
 10
354.173828
 20
626.267456
 10
354.173828
 20
627.337769
 10
354.173828
 20
628.453735
 10
354.173828
 20
629.611206
 10
354.173828
 20
630.805969
 10
354.173828
 20
632.033691
 10
354.173828
 20
633.289917
 10
354.173828
 20
634.569946
 10
354.173828
 20
635.869263
 10
354.173828
 20
637.183044
 10
354.173828
 20
638.50647
 10
354.173828
 20
639.834717
 10
354.173828
 20
641.163025
 10
354.173828
 20
642.48645
 10
354.173828
 20
643.800293
 10
354.173828
 20
645.099548
 10
354.173828
 20
646.379639
 10
354.173828
 20
647.635925
 10
354.173828
 20
648.863647
 10
354.173828
 20
650.058472
 10
354.173828
 20
651.216003
 10
354.173828
 20
652.332031
 10
354.173828
 20
653.402405
 10
354.173828
 20
654.42334
 10
354.173828
 20
655.391052
 10
354.173828
 20
656.30188
 10
354.173828
 20
657.152771
 10
354.173828
 20
657.94043
 10
354.173828
 20
658.662048
 10
354.173828
 20
659.31488
 10
354.173828
 20
659.89679
 10
354.173828
 20
660.405396
 10
354.173828
 20
660.838928
 10
354.173828
 20
661.195923
 10
354.173828
 20
661.474976
 10
354.173828
 20
661.674988
 10
354.173828
 20
661.795349
 10
354.173828
 20
661.835632
  0
LINE
  5
245
330
1EE
100
AcDbEntity
  8
0
  6
Continuous
 62
     0
370
    30
100
AcDbLine
 10
340.923828
 20
617.835655
 30
0.0
 11
304.673828
 21
617.835655
 31
0.0
  0
LINE
  5
246
330
1EE
100
AcDbEntity
  8
0
  6
Continuous
 62
     0
370
    30
100
AcDbLine
 10
304.673828
 20
661.835655
 30
0.0
 11
304.673828
 21
617.835655
 31
0.0
  0
LWPOLYLINE
  5
247
330
1EE
100
AcDbEntity
  8
0
  6
Continuous
 62
     0
370
     0
100
AcDbPolyline
 90
       26
 70
     0
 43
0.0
 10
340.923828
 20
617.835632
 10
340.961304
 20
617.84375
 10
341.073547
 20
617.867493
 10
341.257965
 20
617.905334
 10
341.511597
 20
617.955017
 10
341.830627
 20
618.013489
 10
342.2099
 20
618.077026
 10
342.643311
 20
618.141724
 10
343.12384
 20
618.203674
 10
343.644897
 20
618.258972
 10
344.200012
 20
618.303955
 10
344.779816
 20
618.335938
 10
345.374146
 20
618.352417
 10
345.973236
 20
618.352417
 10
346.567596
 20
618.335938
 10
347.147369
 20
618.303955
 10
347.702515
 20
618.258972
 10
348.223602
 20
618.203674
 10
348.704163
 20
618.141785
 10
349.137604
 20
618.077087
 10
349.516876
 20
618.01355
 10
349.835907
 20
617.955078
 10
350.089539
 20
617.905396
 10
350.274078
 20
617.867493
 10
350.386292
 20
617.84375
 10
350.423828
 20
617.835632
  0
LINE
  5
248
330
1EE
100
AcDbEntity
  8
0
  6
Continuous
 62
     0
370
    30
100
AcDbLine
 10
350.423828
 20
617.835655
 30
0.0
 11
354.173828
 21
617.835655
 31
0.0
  0
LWPOLYLINE
  5
249
330
1EE
100
AcDbEntity
  8
0
  6
Continuous
 62
     0
370
     0
100
AcDbPolyline
 90
       26
 70
     0
 43
0.0
 10
349.773438
 20
661.835632
 10
349.742645
 20
661.829651
 10
349.64502
 20
661.812012
 10
349.486267
 20
661.783936
 10
349.268219
 20
661.74707
 10
348.994049
 20
661.703796
 10
348.667816
 20
661.656616
 10
348.293854
 20
661.608521
 10
347.878265
 20
661.562439
 10
347.427917
 20
661.521301
 10
346.949768
 20
661.487915
 10
346.451324
 20
661.464233
 10
345.940247
 20
661.451965
 10
345.424744
 20
661.451782
 10
344.913361
 20
661.463684
 10
344.414368
 20
661.487
 10
343.935394
 20
661.520081
 10
343.483948
 20
661.560974
 10
343.067017
 20
661.606934
 10
342.691498
 20
661.655029
 10
342.363586
 20
661.702209
 10
342.087585
 20
661.745728
 10
341.867615
 20
661.782837
 10
341.707062
 20
661.811218
 10
341.606964
 20
661.829224
 10
341.573822
 20
661.835632
  0
LWPOLYLINE
  5
24A
330
1EE
100
AcDbEntity
  8
0
  6
Continuous
 62
     0
370
    30
100
AcDbPolyline
 90
       22
 70
     0
 43
0.0
 10
349.12384
 20
669.665649
 10
349.090881
 20
669.665649
 10
348.986267
 20
669.665649
 10
348.804077
 20
669.665649
 10
348.543091
 20
669.665649
 10
348.207977
 20
669.665649
 10
347.809052
 20
669.665649
 10
347.361572
 20
669.665649
 10
346.883636
 20
669.665649
 10
346.394012
 20
669.665649
 10
345.909973
 20
669.665649
 10
345.439362
 20
669.665649
 10
344.955383
 20
669.665649
 10
344.465759
 20
669.665649
 10
343.987732
 20
669.665649
 10
343.540131
 20
669.665649
 10
343.141022
 20
669.665649
 10
342.805634
 20
669.665649
 10
342.544373
 20
669.665649
 10
342.361877
 20
669.665649
 10
342.257019
 20
669.665649
 10
342.223816
 20
669.665649
  0
LINE
  5
24B
330
1EE
100
AcDbEntity
  8
0
  6
Continuous
 62
     0
370
    30
100
AcDbLine
 10
349.123828
 20
669.665655
 30
0.0
 11
349.623828
 21
669.165655
 31
0.0
  0
LINE
  5
24C
330
1EE
100
AcDbEntity
  8
0
  6
Continuous
 62
     0
370
    30
100
AcDbLine
 10
349.623828
 20
669.165655
 30
0.0
 11
341.723828
 21
669.165655
 31
0.0
  0
LWPOLYLINE
  5
24D
330
1EE
100
AcDbEntity
  8
0
  6
Continuous
 62
     0
370
    30
100
AcDbPolyline
 90
       24
 70
     0
 43
0.0
 10
349.62384
 20
661.835632
 10
349.586548
 20
661.829041
 10
349.474854
 20
661.809509
 10
349.292755
 20
661.778748
 10
349.044891
 20
661.739136
 10
348.735229
 20
661.693542
 10
348.368347
 20
661.645325
 10
347.951965
 20
661.597778
 10
347.493896
 20
661.554443
 10
347.001251
 20
661.518677
 10
346.483185
 20
661.493286
 10
345.949646
 20
661.480225
 10
345.410919
 20
661.480103
 10
344.877197
 20
661.49292
 10
344.358643
 20
661.518005
 10
343.865234
 20
661.553528
 10
343.406067
 20
661.59668
 10
342.988525
 20
661.644104
 10
342.620361
 20
661.692383
 10
342.309418
 20
661.738159
 10
342.060394
 20
661.777832
 10
341.876984
 20
661.808594
 10
341.763245
 20
661.82843
 10
341.723175
 20
661.835632
  0
LINE
  5
24E
330
1EE
100
AcDbEntity
  8
0
  6
Continuous
 62
     0
370
    30
100
AcDbLine
 10
349.623828
 20
661.835655
 30
0.0
 11
349.623828
 21
669.165655
 31
0.0
  0
LINE
  5
24F
330
1EE
100
AcDbEntity
  8
0
  6
Continuous
 62
     0
370
    30
100
AcDbLine
 10
304.673828
 20
658.835655
 30
0.0
 11
301.866139
 21
658.835655
 31
0.0
  0
LINE
  5
250
330
1EE
100
AcDbEntity
  8
0
  6
Continuous
 62
     0
370
    30
100
AcDbLine
 10
304.673828
 20
620.835655
 30
0.0
 11
301.866139
 21
620.835655
 31
0.0
  0
LINE
  5
251
330
1EE
100
AcDbEntity
  8
0
  6
Continuous
 62
     0
370
    30
100
AcDbLine
 10
350.423828
 20
617.835655
 30
0.0
 11
340.923828
 21
617.835655
 31
0.0
  0
LINE
  5
252
330
1EE
100
AcDbEntity
  8
0
  6
Continuous
 62
     0
370
    30
100
AcDbLine
 10
341.723828
 20
669.165882
 30
0.0
 11
341.723828
 21
661.835655
 31
0.0
  0
LINE
  5
253
330
1EE
100
AcDbEntity
  8
0
  6
Continuous
 62
     0
370
    30
100
AcDbLine
 10
341.573828
 20
661.835655
 30
0.0
 11
341.723168
 21
661.835655
 31
0.0
  0
LINE
  5
254
330
1EE
100
AcDbEntity
  8
0
  6
Continuous
 62
     0
370
    30
100
AcDbLine
 10
349.623828
 20
661.835655
 30
0.0
 11
349.773431
 21
661.835655
 31
0.0
  0
LINE
  5
255
330
1EE
100
AcDbEntity
  8
0
  6
Continuous
 62
     0
370
    30
100
AcDbLine
 10
342.223828
 20
669.665655
 30
0.0
 11
341.723828
 21
669.165655
 31
0.0
  0
LINE
  5
256
330
1EE
100
AcDbEntity
  8
0
  6
Continuous
 62
     0
370
    30
100
AcDbLine
 10
354.173828
 20
661.835655
 30
0.0
 11
349.773431
 21
661.835655
 31
0.0
  0
LINE
  5
257
330
1EE
100
AcDbEntity
  8
0
  6
Continuous
 62
     0
370
    30
100
AcDbLine
 10
341.573828
 20
661.835655
 30
0.0
 11
304.673828
 21
661.835655
 31
0.0
  0
LINE
  5
258
330
1EE
100
AcDbEntity
  8
0
  6
Continuous
 62
     0
370
    30
100
AcDbLine
 10
354.673828
 20
661.335655
 30
0.0
 11
354.173828
 21
661.835655
 31
0.0
  0
LWPOLYLINE
  5
259
330
1EE
100
AcDbEntity
  8
0
  6
Continuous
 62
     0
370
     0
100
AcDbPolyline
 90
       19
 70
     0
 43
0.0
 10
341.216553
 20
869.299927
 10
341.216553
 20
869.270203
 10
341.216553
 20
869.177002
 10
341.216553
 20
869.015869
 10
341.216553
 20
868.783386
 10
341.216553
 20
868.4776
 10
341.216553
 20
868.098206
 10
341.216553
 20
867.646667
 10
341.216553
 20
867.126404
 10
341.216553
 20
866.542725
 10
341.216553
 20
865.902527
 10
341.216553
 20
865.214172
 10
341.216553
 20
864.487122
 10
341.216553
 20
863.731445
 10
341.216553
 20
862.957458
 10
341.216553
 20
862.175171
 10
341.216553
 20
861.394165
 10
341.216553
 20
860.622986
 10
341.216553
 20
859.838867
  0
LINE
  5
25A
330
1EE
100
AcDbEntity
  8
0
  6
Continuous
 62
     0
370
     0
100
AcDbLine
 10
341.216554
 20
859.838839
 30
0.0
 11
341.216553
 21
850.37137
 31
0.0
  0
LWPOLYLINE
  5
25B
330
1EE
100
AcDbEntity
  8
0
  6
Continuous
 62
     0
370
    30
100
AcDbPolyline
 90
        5
 70
     0
 43
0.0
 10
345.854095
 20
846.858398
 10
345.885101
 20
846.867493
 10
345.975342
 20
846.895081
 10
346.123901
 20
846.942505
 10
346.353821
 20
847.020386
  0
LINE
  5
25C
330
1EE
100
AcDbEntity
  8
0
  6
Continuous
 62
     0
370
     0
100
AcDbLine
 10
346.353827
 20
847.020383
 30
0.0
 11
346.353827
 21
853.23157
 31
0.0
  0
LINE
  5
25D
330
1EE
100
AcDbEntity
  8
0
  6
Continuous
 62
     0
370
     0
100
AcDbLine
 10
346.353827
 20
866.460282
 30
0.0
 11
346.353827
 21
872.652394
 31
0.0
  0
LWPOLYLINE
  5
25E
330
1EE
100
AcDbEntity
  8
0
  6
Continuous
 62
     0
370
    30
100
AcDbPolyline
 90
        5
 70
     0
 43
0.0
 10
346.353821
 20
872.652405
 10
346.143097
 20
872.723694
 10
345.988342
 20
872.772888
 10
345.891907
 20
872.802185
 10
345.854095
 20
872.812927
  0
LWPOLYLINE
  5
25F
330
1EE
100
AcDbEntity
  8
0
  6
Continuous
 62
     0
370
     0
100
AcDbPolyline
 90
       16
 70
     0
 43
0.0
 10
336.51413
 20
866.085754
 10
336.51413
 20
866.057373
 10
336.51413
 20
865.96814
 10
336.51413
 20
865.813171
 10
336.51413
 20
865.589478
 10
336.51413
 20
865.296082
 10
336.51413
 20
864.934448
 10
336.51413
 20
864.508606
 10
336.51413
 20
864.025146
 10
336.51413
 20
863.492615
 10
336.51413
 20
862.921448
 10
336.51413
 20
862.322876
 10
336.51413
 20
861.708618
 10
336.51413
 20
861.089844
 10
336.51413
 20
860.476929
 10
336.51413
 20
859.837769
  0
LINE
  5
260
330
1EE
100
AcDbEntity
  8
0
  6
Continuous
 62
     0
370
     0
100
AcDbLine
 10
336.514129
 20
859.837758
 30
0.0
 11
336.514128
 21
853.585552
 31
0.0
  0
ELLIPSE
  5
261
330
1EE
100
AcDbEntity
  8
0
  6
Continuous
 62
     0
370
     0
100
AcDbEllipse
 10
350.853829
 20
881.709994
 30
0.0
 11
4.999999999980004
 21
7.351698838451571E-11
 31
0.0
210
0.0
220
0.0
230
1.0
 40
0.000336
 41
-0.000000043711391
 42
3.141593109881531
  0
LINE
  5
262
330
1EE
100
AcDbEntity
  8
0
  6
Continuous
 62
     0
370
    30
100
AcDbLine
 10
355.853829
 20
881.709994
 30
0.0
 11
355.853829
 21
872.835654
 31
0.0
  0
LWPOLYLINE
  5
263
330
1EE
100
AcDbEntity
  8
0
  6
Continuous
 62
     0
370
    30
100
AcDbPolyline
 90
       24
 70
     0
 43
0.0
 10
346.353821
 20
872.652405
 10
346.637024
 20
872.556213
 10
346.977814
 20
872.447449
 10
347.369904
 20
872.332458
 10
347.806793
 20
872.218201
 10
348.284821
 20
872.109375
 10
348.799438
 20
872.011658
 10
349.344482
 20
871.931396
 10
349.912811
 20
871.874329
 10
350.496368
 20
871.844116
 10
351.085815
 20
871.840393
 10
351.671539
 20
871.863647
 10
352.243805
 20
871.915833
 10
352.794098
 20
871.993896
 10
353.315796
 20
872.087952
 10
353.80246
 20
872.19342
 10
354.24826
 20
872.307739
 10
354.649139
 20
872.423279
 10
355.00061
 20
872.533508
 10
355.297729
 20
872.633179
 10
355.535645
 20
872.717102
 10
355.709961
 20
872.781067
 10
355.816864
 20
872.821716
 10
355.853821
 20
872.835632
  0
ARC
  5
264
330
1EE
100
AcDbEntity
  8
0
  6
Continuous
 62
     0
370
    30
100
AcDbCircle
 10
365.853828
 20
881.709994
 30
0.0
 40
9.99999907467895
100
AcDbArc
 50
141.786787
 51
180.0
  0
ARC
  5
265
330
1EE
100
AcDbEntity
  8
0
  6
Continuous
 62
     0
370
     0
100
AcDbCircle
 10
350.853829
 20
-9729.520278
 30
0.0
 40
10617.41856946736
100
AcDbArc
 50
89.961454
 51
90.038546
  0
ARC
  5
266
330
1EE
100
AcDbEntity
  8
0
  6
Continuous
 62
     0
370
    30
100
AcDbCircle
 10
354.853829
 20
890.370247
 30
0.0
 40
3.999999630101478
100
AcDbArc
 50
321.786788
 51
55.150098
  0
ARC
  5
267
330
1EE
100
AcDbEntity
  8
0
  6
Continuous
 62
     0
370
     0
100
AcDbCircle
 10
350.853829
 20
-8449.673372
 30
0.0
 40
9343.328340411132
100
AcDbArc
 50
89.961454
 51
90.038546
  0
ARC
  5
268
330
1EE
100
AcDbEntity
  8
0
  6
Continuous
 62
     0
370
    30
100
AcDbCircle
 10
350.853829
 20
884.625684
 30
0.0
 40
11.00000004499467
100
AcDbArc
 50
55.150097
 51
57.42282
  0
ARC
  5
269
330
1EE
100
AcDbEntity
  8
0
  6
Continuous
 62
     0
370
     0
100
AcDbCircle
 10
350.85383
 20
859.847031
 30
0.0
 40
6.28571428568883
100
AcDbArc
 50
180.000003
 51
359.999997
  0
ARC
  5
26A
330
1EE
100
AcDbEntity
  8
0
  6
Continuous
 62
     0
370
     0
100
AcDbCircle
 10
350.85383
 20
859.84703
 30
0.0
 40
6.28571428568883
100
AcDbArc
 50
0.000003
 51
179.999997
  0
ELLIPSE
  5
26B
330
1EE
100
AcDbEntity
  8
0
  6
Continuous
 62
     0
370
     0
100
AcDbEllipse
 10
350.853829
 20
837.961317
 30
0.0
 11
-4.999999999980004
 21
-7.351698838451571E-11
 31
0.0
210
0.0
220
0.0
230
-1.0
 40
0.000336
 41
0.0000005437145194
 42
3.141592697301184
  0
LINE
  5
26C
330
1EE
100
AcDbEntity
  8
0
  6
Continuous
 62
     0
370
    30
100
AcDbLine
 10
355.853829
 20
837.961317
 30
0.0
 11
355.853829
 21
846.835656
 31
0.0
  0
LWPOLYLINE
  5
26D
330
1EE
100
AcDbEntity
  8
0
  6
Continuous
 62
     0
370
    30
100
AcDbPolyline
 90
       24
 70
     0
 43
0.0
 10
355.853821
 20
846.835632
 10
355.819031
 20
846.849121
 10
355.714294
 20
846.889404
 10
355.541962
 20
846.953125
 10
355.305969
 20
847.036804
 10
355.010559
 20
847.136414
 10
354.660706
 20
847.246704
 10
354.261261
 20
847.362488
 10
353.816772
 20
847.477173
 10
353.331299
 20
847.583191
 10
352.810577
 20
847.677856
 10
352.261078
 20
847.756653
 10
351.689362
 20
847.809814
 10
351.103912
 20
847.833923
 10
350.514435
 20
847.831055
 10
349.930573
 20
847.801575
 10
349.361633
 20
847.745239
 10
348.815765
 20
847.665527
 10
348.30011
 20
847.568054
 10
347.820892
 20
847.45929
 10
347.38269
 20
847.344788
 10
346.989105
 20
847.229492
 10
346.646637
 20
847.120056
 10
346.353821
 20
847.020386
  0
ARC
  5
26E
330
1EE
100
AcDbEntity
  8
0
  6
Continuous
 62
     0
370
    30
100
AcDbCircle
 10
365.853828
 20
837.961317
 30
0.0
 40
9.999999074943673
100
AcDbArc
 50
180.0
 51
218.213213
  0
ARC
  5
26F
330
1EE
100
AcDbEntity
  8
0
  6
Continuous
 62
     0
370
     0
100
AcDbCircle
 10
350.853829
 20
-9785.640745
 30
0.0
 40
10617.4185685878
100
AcDbArc
 50
89.961454
 51
90.038546
  0
ARC
  5
270
330
1EE
100
AcDbEntity
  8
0
  6
Continuous
 62
     0
370
    30
100
AcDbCircle
 10
354.853829
 20
829.301063
 30
0.0
 40
3.999999630059003
100
AcDbArc
 50
304.849902
 51
38.213212
  0
ARC
  5
271
330
1EE
100
AcDbEntity
  8
0
  6
Continuous
 62
     0
370
     0
100
AcDbCircle
 10
350.853829
 20
-8517.30777
 30
0.0
 40
9343.328340412743
100
AcDbArc
 50
89.961454
 51
90.038546
  0
ARC
  5
272
330
1EE
100
AcDbEntity
  8
0
  6
Continuous
 62
     0
370
    30
100
AcDbCircle
 10
350.853829
 20
835.045627
 30
0.0
 40
11.00000043127665
100
AcDbArc
 50
270.0
 51
304.849903
  0
LWPOLYLINE
  5
273
330
1EE
100
AcDbEntity
  8
0
  6
Continuous
 62
     0
370
     0
100
AcDbPolyline
 90
       42
 70
     0
 43
0.0
 10
362.853821
 20
872.833496
 10
362.853821
 20
872.818359
 10
362.853821
 20
872.736755
 10
362.853821
 20
872.584167
 10
362.853821
 20
872.356995
 10
362.853821
 20
872.052551
 10
362.853821
 20
871.669495
 10
362.853821
 20
871.208008
 10
362.853821
 20
870.669678
 10
362.853821
 20
870.057678
 10
362.853821
 20
869.37677
 10
362.853821
 20
868.633118
 10
362.853821
 20
867.834045
 10
362.853821
 20
866.988037
 10
362.853821
 20
866.104126
 10
362.853821
 20
865.191895
 10
362.853821
 20
864.260925
 10
362.853821
 20
863.320557
 10
362.853821
 20
862.379761
 10
362.853821
 20
861.446716
 10
362.853821
 20
860.528809
 10
362.853821
 20
859.626099
 10
362.853821
 20
858.705994
 10
362.853821
 20
857.768127
 10
362.853821
 20
856.819763
 10
362.853821
 20
855.869019
 10
362.853821
 20
854.924744
 10
362.853821
 20
853.996216
 10
362.853821
 20
853.09314
 10
362.853821
 20
852.225037
 10
362.853821
 20
851.401306
 10
362.853821
 20
850.630493
 10
362.853821
 20
849.920288
 10
362.853821
 20
849.2771
 10
362.853821
 20
848.706055
 10
362.853821
 20
848.210632
 10
362.853821
 20
847.792908
 10
362.853821
 20
847.453247
 10
362.853821
 20
847.190735
 10
362.853821
 20
847.003113
 10
362.853821
 20
846.886902
 10
362.853821
 20
846.83783
  0
LINE
  5
274
330
1EE
100
AcDbEntity
  8
0
  6
Continuous
 62
     0
370
    30
100
AcDbLine
 10
367.853827
 20
851.836997
 30
0.0
 11
367.853827
 21
867.834314
 31
0.0
  0
LINE
  5
275
330
1EE
100
AcDbEntity
  8
0
  6
Continuous
 62
     0
370
    30
100
AcDbLine
 10
362.853827
 20
846.835655
 30
0.0
 11
355.8538
 21
846.835655
 31
0.0
  0
LINE
  5
276
330
1EE
100
AcDbEntity
  8
0
  6
Continuous
 62
     0
370
    30
100
AcDbLine
 10
362.853827
 20
872.835655
 30
0.0
 11
355.8538
 21
872.835655
 31
0.0
  0
ARC
  5
277
330
1EE
100
AcDbEntity
  8
0
  6
Continuous
 62
     0
370
    30
100
AcDbCircle
 10
362.85382
 20
867.835652
 30
0.0
 40
5.000006581816576
100
AcDbArc
 50
0.000075
 51
89.999925
  0
ARC
  5
278
330
1EE
100
AcDbEntity
  8
0
  6
Continuous
 62
     0
370
    30
100
AcDbCircle
 10
362.85382
 20
851.835659
 30
0.0
 40
5.0000065818175
100
AcDbArc
 50
270.000075
 51
359.999925
  0
ARC
  5
279
330
1EE
100
AcDbEntity
  8
0
  6
Continuous
 62
     0
370
    30
100
AcDbCircle
 10
350.854136
 20
835.046575
 30
0.0
 40
11.0009551377616
100
AcDbArc
 50
235.151612
 51
269.998398
  0
ARC
  5
27A
330
1EE
100
AcDbEntity
  8
0
  6
Continuous
 62
     0
370
    30
100
AcDbCircle
 10
346.853844
 20
829.301065
 30
0.0
 40
4.000010773469499
100
AcDbArc
 50
141.786941
 51
235.149949
  0
ARC
  5
27B
330
1EE
100
AcDbEntity
  8
0
  6
Continuous
 62
     0
370
    30
100
AcDbCircle
 10
335.853744
 20
837.961347
 30
0.0
 40
10.00008449769321
100
AcDbArc
 50
321.786959
 51
359.999828
  0
LINE
  5
27C
330
1EE
100
AcDbEntity
  8
0
  6
Continuous
 62
     0
370
    30
100
AcDbLine
 10
345.853829
 20
846.858403
 30
0.0
 11
345.853829
 21
837.961317
 31
0.0
  0
CIRCLE
  5
27D
330
1EE
100
AcDbEntity
  8
0
  6
Continuous
 62
     0
370
    30
100
AcDbCircle
 10
350.85383
 20
859.845926
 30
0.0
 40
7.999999890432232
  0
ARC
  5
27E
330
1EE
100
AcDbEntity
  8
0
  6
Continuous
 62
     0
370
    30
100
AcDbCircle
 10
350.853828
 20
884.625708
 30
0.0
 40
10.99998090617876
100
AcDbArc
 50
57.422751
 51
124.849966
  0
ARC
  5
27F
330
1EE
100
AcDbEntity
  8
0
  6
Continuous
 62
     0
370
    30
100
AcDbCircle
 10
346.853844
 20
890.370245
 30
0.0
 40
4.000010773478332
100
AcDbArc
 50
124.850051
 51
218.213059
  0
ARC
  5
280
330
1EE
100
AcDbEntity
  8
0
  6
Continuous
 62
     0
370
    30
100
AcDbCircle
 10
335.853744
 20
881.709964
 30
0.0
 40
10.00008449768898
100
AcDbArc
 50
0.000172
 51
38.213041
  0
LINE
  5
281
330
1EE
100
AcDbEntity
  8
0
  6
Continuous
 62
     0
370
    30
100
AcDbLine
 10
345.853829
 20
872.812907
 30
0.0
 11
345.853829
 21
881.709994
 31
0.0
  0
LINE
  5
282
330
1EE
100
AcDbEntity
  8
0
  6
Continuous
 62
     0
370
    30
100
AcDbLine
 10
336.514128
 20
853.585552
 30
0.0
 11
332.853827
 21
853.573774
 31
0.0
  0
LINE
  5
283
330
1EE
100
AcDbEntity
  8
0
  6
Continuous
 62
     0
370
    30
100
AcDbLine
 10
336.514128
 20
866.085759
 30
0.0
 11
332.853827
 21
866.097536
 31
0.0
  0
ARC
  5
284
330
1EE
100
AcDbEntity
  8
0
  6
Continuous
 62
     0
370
    30
100
AcDbCircle
 10
336.54615
 20
848.585429
 30
0.0
 40
5.000225295552633
100
AcDbArc
 50
20.926621
 51
90.366922
  0
ARC
  5
285
330
1EE
100
AcDbEntity
  8
0
  6
Continuous
 62
     0
370
    30
100
AcDbCircle
 10
336.54615
 20
871.085882
 30
0.0
 40
5.000225295553221
100
AcDbArc
 50
269.633078
 51
339.073379
  0
LWPOLYLINE
  5
286
330
1EE
100
AcDbEntity
  8
0
  6
Continuous
 62
     0
370
    30
100
AcDbPolyline
 90
       11
 70
     0
 43
0.0
 10
341.216553
 20
869.299927
 10
341.466583
 20
869.858459
 10
341.777161
 20
870.385925
 10
342.144348
 20
870.875427
 10
342.56369
 20
871.321228
 10
343.029938
 20
871.717651
 10
343.537384
 20
872.059753
 10
344.079651
 20
872.343445
 10
344.650085
 20
872.565125
 10
345.241608
 20
872.722412
 10
345.854248
 20
872.812927
  0
LWPOLYLINE
  5
287
330
1EE
100
AcDbEntity
  8
0
  6
Continuous
 62
     0
370
    30
100
AcDbPolyline
 90
       11
 70
     0
 43
0.0
 10
341.216553
 20
850.371399
 10
341.466583
 20
849.812805
 10
341.777161
 20
849.2854
 10
342.144348
 20
848.795837
 10
342.56369
 20
848.350098
 10
343.029938
 20
847.953674
 10
343.537384
 20
847.611572
 10
344.079651
 20
847.327881
 10
344.650085
 20
847.106201
 10
345.241608
 20
846.948853
 10
345.854248
 20
846.858398
  0
LINE
  5
288
330
1EE
100
AcDbEntity
  8
0
  6
Continuous
 62
     0
370
    30
100
AcDbLine
 10
332.853827
 20
844.514028
 30
0.0
 11
332.853828
 21
859.835655
 31
0.0
  0
LINE
  5
289
330
1EE
100
AcDbEntity
  8
0
  6
Continuous
 62
     0
370
    30
100
AcDbLine
 10
332.853828
 20
859.835655
 30
0.0
 11
332.853827
 21
875.157282
 31
0.0
  0
LINE
  5
28A
330
1EE
100
AcDbEntity
  8
0
  6
Continuous
 62
     0
370
     0
100
AcDbLine
 10
326.214835
 20
883.04066
 30
0.0
 11
326.214836
 21
859.835655
 31
0.0
  0
LINE
  5
28B
330
1EE
100
AcDbEntity
  8
0
  6
Continuous
 62
     0
370
     0
100
AcDbLine
 10
326.214836
 20
859.835655
 30
0.0
 11
326.214835
 21
836.63065
 31
0.0
  0
LINE
  5
28C
330
1EE
100
AcDbEntity
  8
0
  6
Continuous
 62
     0
370
     0
100
AcDbLine
 10
302.33573
 20
887.163215
 30
0.0
 11
302.335731
 21
859.835655
 31
0.0
  0
LINE
  5
28D
330
1EE
100
AcDbEntity
  8
0
  6
Continuous
 62
     0
370
     0
100
AcDbLine
 10
302.335731
 20
859.835655
 30
0.0
 11
302.33573
 21
832.508095
 31
0.0
  0
LINE
  5
28E
330
1EE
100
AcDbEntity
  8
0
  6
Continuous
 62
     0
370
     0
100
AcDbLine
 10
297.335468
 20
889.840016
 30
0.0
 11
297.33547
 21
859.835655
 31
0.0
  0
LINE
  5
28F
330
1EE
100
AcDbEntity
  8
0
  6
Continuous
 62
     0
370
     0
100
AcDbLine
 10
297.33547
 20
859.835655
 30
0.0
 11
297.335468
 21
829.831295
 31
0.0
  0
LINE
  5
290
330
1EE
100
AcDbEntity
  8
0
  6
Continuous
 62
     0
370
    30
100
AcDbLine
 10
291.453827
 20
892.335655
 30
0.0
 11
291.453828
 21
859.835655
 31
0.0
  0
LINE
  5
291
330
1EE
100
AcDbEntity
  8
0
  6
Continuous
 62
     0
370
    30
100
AcDbLine
 10
291.453828
 20
859.835655
 30
0.0
 11
291.453827
 21
827.335655
 31
0.0
  0
ARC
  5
292
330
1EE
100
AcDbEntity
  8
0
  6
Continuous
 62
     0
370
    30
100
AcDbCircle
 10
291.529738
 20
835.3354
 30
0.0
 40
8.00010467575918
100
AcDbArc
 50
269.456324
 51
316.527674
  0
ARC
  5
293
330
1EE
100
AcDbEntity
  8
0
  6
Continuous
 62
     0
370
    30
100
AcDbCircle
 10
291.529738
 20
884.335911
 30
0.0
 40
8.00010467575559
100
AcDbArc
 50
43.472326
 51
90.543676
  0
ARC
  5
294
330
1EE
100
AcDbEntity
  8
0
  6
Continuous
 62
     0
370
    30
100
AcDbCircle
 10
303.8669
 20
896.032083
 30
0.0
 40
9.000072052859036
100
AcDbArc
 50
223.472152
 51
260.204701
  0
ARC
  5
295
330
1EE
100
AcDbEntity
  8
0
  6
Continuous
 62
     0
370
    30
100
AcDbCircle
 10
303.8669
 20
823.639228
 30
0.0
 40
9.000072052861952
100
AcDbArc
 50
99.795299
 51
136.527848
  0
LINE
  5
296
330
1EE
100
AcDbEntity
  8
0
  6
Continuous
 62
     0
370
    30
100
AcDbLine
 10
326.214835
 20
836.63065
 30
0.0
 11
302.33573
 21
832.508095
 31
0.0
  0
LINE
  5
297
330
1EE
100
AcDbEntity
  8
0
  6
Continuous
 62
     0
370
    30
100
AcDbLine
 10
326.214835
 20
883.04066
 30
0.0
 11
302.33573
 21
887.163215
 31
0.0
  0
ARC
  5
298
330
1EE
100
AcDbEntity
  8
0
  6
Continuous
 62
     0
370
    30
100
AcDbCircle
 10
324.853825
 20
844.51403
 30
0.0
 40
8.000001724298805
100
AcDbArc
 50
279.795157
 51
359.992608
  0
ARC
  5
299
330
1EE
100
AcDbEntity
  8
0
  6
Continuous
 62
     0
370
    30
100
AcDbCircle
 10
324.853825
 20
875.15728
 30
0.0
 40
8.000001724297073
100
AcDbArc
 50
0.007392
 51
80.204843
  0
LWPOLYLINE
  5
29A
330
1EE
100
AcDbEntity
  8
0
  6
Continuous
 62
     0
370
     0
100
AcDbPolyline
 90
       19
 70
     0
 43
0.0
 10
341.216553
 20
969.299927
 10
341.216553
 20
969.270203
 10
341.216553
 20
969.177002
 10
341.216553
 20
969.015869
 10
341.216553
 20
968.783386
 10
341.216553
 20
968.4776
 10
341.216553
 20
968.098206
 10
341.216553
 20
967.646667
 10
341.216553
 20
967.126404
 10
341.216553
 20
966.542725
 10
341.216553
 20
965.902527
 10
341.216553
 20
965.214172
 10
341.216553
 20
964.487122
 10
341.216553
 20
963.731445
 10
341.216553
 20
962.957458
 10
341.216553
 20
962.175171
 10
341.216553
 20
961.394165
 10
341.216553
 20
960.622986
 10
341.216553
 20
959.838867
  0
LINE
  5
29B
330
1EE
100
AcDbEntity
  8
0
  6
Continuous
 62
     0
370
     0
100
AcDbLine
 10
341.216554
 20
959.838839
 30
0.0
 11
341.216553
 21
950.37137
 31
0.0
  0
LWPOLYLINE
  5
29C
330
1EE
100
AcDbEntity
  8
0
  6
Continuous
 62
     0
370
    30
100
AcDbPolyline
 90
        5
 70
     0
 43
0.0
 10
345.854095
 20
946.858398
 10
345.885101
 20
946.867493
 10
345.975342
 20
946.895081
 10
346.123901
 20
946.942505
 10
346.353821
 20
947.020386
  0
LINE
  5
29D
330
1EE
100
AcDbEntity
  8
0
  6
Continuous
 62
     0
370
     0
100
AcDbLine
 10
346.353827
 20
947.020383
 30
0.0
 11
346.353827
 21
953.23157
 31
0.0
  0
LINE
  5
29E
330
1EE
100
AcDbEntity
  8
0
  6
Continuous
 62
     0
370
     0
100
AcDbLine
 10
346.353827
 20
966.460282
 30
0.0
 11
346.353827
 21
972.652394
 31
0.0
  0
LWPOLYLINE
  5
29F
330
1EE
100
AcDbEntity
  8
0
  6
Continuous
 62
     0
370
    30
100
AcDbPolyline
 90
        5
 70
     0
 43
0.0
 10
346.353821
 20
972.652405
 10
346.143097
 20
972.723694
 10
345.988342
 20
972.772888
 10
345.891907
 20
972.802185
 10
345.854095
 20
972.812927
  0
LWPOLYLINE
  5
2A0
330
1EE
100
AcDbEntity
  8
0
  6
Continuous
 62
     0
370
     0
100
AcDbPolyline
 90
       16
 70
     0
 43
0.0
 10
336.51413
 20
966.085754
 10
336.51413
 20
966.057373
 10
336.51413
 20
965.96814
 10
336.51413
 20
965.813171
 10
336.51413
 20
965.589478
 10
336.51413
 20
965.296082
 10
336.51413
 20
964.934448
 10
336.51413
 20
964.508606
 10
336.51413
 20
964.025146
 10
336.51413
 20
963.492615
 10
336.51413
 20
962.921448
 10
336.51413
 20
962.322876
 10
336.51413
 20
961.708618
 10
336.51413
 20
961.089844
 10
336.51413
 20
960.476929
 10
336.51413
 20
959.837769
  0
LINE
  5
2A1
330
1EE
100
AcDbEntity
  8
0
  6
Continuous
 62
     0
370
     0
100
AcDbLine
 10
336.514129
 20
959.837758
 30
0.0
 11
336.514128
 21
953.585552
 31
0.0
  0
ELLIPSE
  5
2A2
330
1EE
100
AcDbEntity
  8
0
  6
Continuous
 62
     0
370
     0
100
AcDbEllipse
 10
350.853829
 20
981.709994
 30
0.0
 11
4.999999999980004
 21
7.351698838451571E-11
 31
0.0
210
0.0
220
0.0
230
1.0
 40
0.000336
 41
-0.000000043711391
 42
3.141593109881531
  0
LINE
  5
2A3
330
1EE
100
AcDbEntity
  8
0
  6
Continuous
 62
     0
370
    30
100
AcDbLine
 10
355.853829
 20
981.709994
 30
0.0
 11
355.853829
 21
972.835654
 31
0.0
  0
LWPOLYLINE
  5
2A4
330
1EE
100
AcDbEntity
  8
0
  6
Continuous
 62
     0
370
    30
100
AcDbPolyline
 90
       24
 70
     0
 43
0.0
 10
346.353821
 20
972.652405
 10
346.637024
 20
972.556213
 10
346.977814
 20
972.447449
 10
347.369904
 20
972.332458
 10
347.806793
 20
972.218201
 10
348.284821
 20
972.109375
 10
348.799438
 20
972.011658
 10
349.344482
 20
971.931396
 10
349.912811
 20
971.874329
 10
350.496368
 20
971.844116
 10
351.085815
 20
971.840393
 10
351.671539
 20
971.863647
 10
352.243805
 20
971.915833
 10
352.794098
 20
971.993896
 10
353.315796
 20
972.087952
 10
353.80246
 20
972.19342
 10
354.24826
 20
972.307739
 10
354.649139
 20
972.423279
 10
355.00061
 20
972.533508
 10
355.297729
 20
972.633179
 10
355.535645
 20
972.717102
 10
355.709961
 20
972.781067
 10
355.816864
 20
972.821716
 10
355.853821
 20
972.835632
  0
ARC
  5
2A5
330
1EE
100
AcDbEntity
  8
0
  6
Continuous
 62
     0
370
    30
100
AcDbCircle
 10
365.853828
 20
981.709994
 30
0.0
 40
9.999999074681885
100
AcDbArc
 50
141.786787
 51
180.0
  0
ARC
  5
2A6
330
1EE
100
AcDbEntity
  8
0
  6
Continuous
 62
     0
370
     0
100
AcDbCircle
 10
350.853829
 20
-9629.520277
 30
0.0
 40
10617.41856833852
100
AcDbArc
 50
89.961454
 51
90.038546
  0
ARC
  5
2A7
330
1EE
100
AcDbEntity
  8
0
  6
Continuous
 62
     0
370
    30
100
AcDbCircle
 10
354.853829
 20
990.370247
 30
0.0
 40
3.999999630095994
100
AcDbArc
 50
321.786788
 51
55.150098
  0
ARC
  5
2A8
330
1EE
100
AcDbEntity
  8
0
  6
Continuous
 62
     0
370
     0
100
AcDbCircle
 10
350.853829
 20
-8349.673372
 30
0.0
 40
9343.328340790265
100
AcDbArc
 50
89.961454
 51
90.038546
  0
ARC
  5
2A9
330
1EE
100
AcDbEntity
  8
0
  6
Continuous
 62
     0
370
    30
100
AcDbCircle
 10
350.853829
 20
984.625684
 30
0.0
 40
11.00000004629926
100
AcDbArc
 50
55.150097
 51
57.42282
  0
ARC
  5
2AA
330
1EE
100
AcDbEntity
  8
0
  6
Continuous
 62
     0
370
     0
100
AcDbCircle
 10
350.85383
 20
959.847031
 30
0.0
 40
6.28571428568883
100
AcDbArc
 50
180.000003
 51
359.999997
  0
ARC
  5
2AB
330
1EE
100
AcDbEntity
  8
0
  6
Continuous
 62
     0
370
     0
100
AcDbCircle
 10
350.85383
 20
959.84703
 30
0.0
 40
6.28571428568883
100
AcDbArc
 50
0.000003
 51
179.999997
  0
ELLIPSE
  5
2AC
330
1EE
100
AcDbEntity
  8
0
  6
Continuous
 62
     0
370
     0
100
AcDbEllipse
 10
350.853829
 20
937.961317
 30
0.0
 11
-4.999999999980004
 21
-7.351698838451571E-11
 31
0.0
210
0.0
220
0.0
230
-1.0
 40
0.000336
 41
0.0000005437145194
 42
3.141592697301184
  0
LINE
  5
2AD
330
1EE
100
AcDbEntity
  8
0
  6
Continuous
 62
     0
370
    30
100
AcDbLine
 10
355.853829
 20
937.961317
 30
0.0
 11
355.853829
 21
946.835656
 31
0.0
  0
LWPOLYLINE
  5
2AE
330
1EE
100
AcDbEntity
  8
0
  6
Continuous
 62
     0
370
    30
100
AcDbPolyline
 90
       24
 70
     0
 43
0.0
 10
355.853821
 20
946.835632
 10
355.819031
 20
946.849121
 10
355.714294
 20
946.889404
 10
355.541962
 20
946.953125
 10
355.305969
 20
947.036804
 10
355.010559
 20
947.136414
 10
354.660706
 20
947.246704
 10
354.261261
 20
947.362488
 10
353.816772
 20
947.477173
 10
353.331299
 20
947.583191
 10
352.810577
 20
947.677856
 10
352.261078
 20
947.756653
 10
351.689362
 20
947.809814
 10
351.103912
 20
947.833923
 10
350.514435
 20
947.831055
 10
349.930573
 20
947.801575
 10
349.361633
 20
947.745239
 10
348.815765
 20
947.665527
 10
348.30011
 20
947.568054
 10
347.820892
 20
947.45929
 10
347.38269
 20
947.344788
 10
346.989105
 20
947.229492
 10
346.646637
 20
947.120056
 10
346.353821
 20
947.020386
  0
ARC
  5
2AF
330
1EE
100
AcDbEntity
  8
0
  6
Continuous
 62
     0
370
    30
100
AcDbCircle
 10
365.853828
 20
937.961317
 30
0.0
 40
9.999999074955962
100
AcDbArc
 50
180.0
 51
218.213213
  0
ARC
  5
2B0
330
1EE
100
AcDbEntity
  8
0
  6
Continuous
 62
     0
370
     0
100
AcDbCircle
 10
350.853829
 20
-9685.640744
 30
0.0
 40
10617.41856834124
100
AcDbArc
 50
89.961454
 51
90.038546
  0
ARC
  5
2B1
330
1EE
100
AcDbEntity
  8
0
  6
Continuous
 62
     0
370
    30
100
AcDbCircle
 10
354.853829
 20
929.301063
 30
0.0
 40
3.999999630058749
100
AcDbArc
 50
304.849902
 51
38.213212
  0
ARC
  5
2B2
330
1EE
100
AcDbEntity
  8
0
  6
Continuous
 62
     0
370
     0
100
AcDbCircle
 10
350.853829
 20
-8417.30777
 30
0.0
 40
9343.328340287822
100
AcDbArc
 50
89.961454
 51
90.038546
  0
ARC
  5
2B3
330
1EE
100
AcDbEntity
  8
0
  6
Continuous
 62
     0
370
    30
100
AcDbCircle
 10
350.853829
 20
935.045627
 30
0.0
 40
11.00000043127726
100
AcDbArc
 50
270.0
 51
304.849903
  0
LWPOLYLINE
  5
2B4
330
1EE
100
AcDbEntity
  8
0
  6
Continuous
 62
     0
370
     0
100
AcDbPolyline
 90
       42
 70
     0
 43
0.0
 10
362.853821
 20
972.833496
 10
362.853821
 20
972.818359
 10
362.853821
 20
972.736755
 10
362.853821
 20
972.584167
 10
362.853821
 20
972.356995
 10
362.853821
 20
972.052551
 10
362.853821
 20
971.669495
 10
362.853821
 20
971.208008
 10
362.853821
 20
970.669678
 10
362.853821
 20
970.057678
 10
362.853821
 20
969.37677
 10
362.853821
 20
968.633118
 10
362.853821
 20
967.834045
 10
362.853821
 20
966.988037
 10
362.853821
 20
966.104126
 10
362.853821
 20
965.191895
 10
362.853821
 20
964.260925
 10
362.853821
 20
963.320557
 10
362.853821
 20
962.379761
 10
362.853821
 20
961.446716
 10
362.853821
 20
960.528809
 10
362.853821
 20
959.626099
 10
362.853821
 20
958.705994
 10
362.853821
 20
957.768127
 10
362.853821
 20
956.819763
 10
362.853821
 20
955.869019
 10
362.853821
 20
954.924744
 10
362.853821
 20
953.996216
 10
362.853821
 20
953.09314
 10
362.853821
 20
952.225037
 10
362.853821
 20
951.401306
 10
362.853821
 20
950.630493
 10
362.853821
 20
949.920288
 10
362.853821
 20
949.2771
 10
362.853821
 20
948.706055
 10
362.853821
 20
948.210632
 10
362.853821
 20
947.792908
 10
362.853821
 20
947.453247
 10
362.853821
 20
947.190735
 10
362.853821
 20
947.003113
 10
362.853821
 20
946.886902
 10
362.853821
 20
946.83783
  0
LINE
  5
2B5
330
1EE
100
AcDbEntity
  8
0
  6
Continuous
 62
     0
370
    30
100
AcDbLine
 10
367.853827
 20
951.836997
 30
0.0
 11
367.853827
 21
967.834314
 31
0.0
  0
LINE
  5
2B6
330
1EE
100
AcDbEntity
  8
0
  6
Continuous
 62
     0
370
    30
100
AcDbLine
 10
362.853827
 20
946.835655
 30
0.0
 11
355.8538
 21
946.835655
 31
0.0
  0
LINE
  5
2B7
330
1EE
100
AcDbEntity
  8
0
  6
Continuous
 62
     0
370
    30
100
AcDbLine
 10
362.853827
 20
972.835655
 30
0.0
 11
355.8538
 21
972.835655
 31
0.0
  0
ARC
  5
2B8
330
1EE
100
AcDbEntity
  8
0
  6
Continuous
 62
     0
370
    30
100
AcDbCircle
 10
362.85382
 20
967.835652
 30
0.0
 40
5.000006581816974
100
AcDbArc
 50
0.000075
 51
89.999925
  0
ARC
  5
2B9
330
1EE
100
AcDbEntity
  8
0
  6
Continuous
 62
     0
370
    30
100
AcDbCircle
 10
362.85382
 20
951.835659
 30
0.0
 40
5.000006581818644
100
AcDbArc
 50
270.000075
 51
359.999925
  0
ARC
  5
2BA
330
1EE
100
AcDbEntity
  8
0
  6
Continuous
 62
     0
370
    30
100
AcDbCircle
 10
350.854136
 20
935.046575
 30
0.0
 40
11.00095513776819
100
AcDbArc
 50
235.151612
 51
269.998398
  0
ARC
  5
2BB
330
1EE
100
AcDbEntity
  8
0
  6
Continuous
 62
     0
370
    30
100
AcDbCircle
 10
346.853844
 20
929.301065
 30
0.0
 40
4.000010773470336
100
AcDbArc
 50
141.786941
 51
235.149949
  0
ARC
  5
2BC
330
1EE
100
AcDbEntity
  8
0
  6
Continuous
 62
     0
370
    30
100
AcDbCircle
 10
335.853744
 20
937.961347
 30
0.0
 40
10.00008449769571
100
AcDbArc
 50
321.786959
 51
359.999828
  0
LINE
  5
2BD
330
1EE
100
AcDbEntity
  8
0
  6
Continuous
 62
     0
370
    30
100
AcDbLine
 10
345.853829
 20
946.858403
 30
0.0
 11
345.853829
 21
937.961317
 31
0.0
  0
CIRCLE
  5
2BE
330
1EE
100
AcDbEntity
  8
0
  6
Continuous
 62
     0
370
    30
100
AcDbCircle
 10
350.85383
 20
959.845926
 30
0.0
 40
7.999999890432229
  0
ARC
  5
2BF
330
1EE
100
AcDbEntity
  8
0
  6
Continuous
 62
     0
370
    30
100
AcDbCircle
 10
350.853828
 20
984.625708
 30
0.0
 40
10.99998090617538
100
AcDbArc
 50
57.422751
 51
124.849966
  0
ARC
  5
2C0
330
1EE
100
AcDbEntity
  8
0
  6
Continuous
 62
     0
370
    30
100
AcDbCircle
 10
346.853844
 20
990.370245
 30
0.0
 40
4.000010773477987
100
AcDbArc
 50
124.850051
 51
218.213059
  0
ARC
  5
2C1
330
1EE
100
AcDbEntity
  8
0
  6
Continuous
 62
     0
370
    30
100
AcDbCircle
 10
335.853744
 20
981.709964
 30
0.0
 40
10.00008449769765
100
AcDbArc
 50
0.000172
 51
38.213041
  0
LINE
  5
2C2
330
1EE
100
AcDbEntity
  8
0
  6
Continuous
 62
     0
370
    30
100
AcDbLine
 10
345.853829
 20
972.812907
 30
0.0
 11
345.853829
 21
981.709994
 31
0.0
  0
LINE
  5
2C3
330
1EE
100
AcDbEntity
  8
0
  6
Continuous
 62
     0
370
    30
100
AcDbLine
 10
336.514128
 20
953.585552
 30
0.0
 11
332.853827
 21
953.573774
 31
0.0
  0
LINE
  5
2C4
330
1EE
100
AcDbEntity
  8
0
  6
Continuous
 62
     0
370
    30
100
AcDbLine
 10
336.514128
 20
966.085759
 30
0.0
 11
332.853827
 21
966.097536
 31
0.0
  0
ARC
  5
2C5
330
1EE
100
AcDbEntity
  8
0
  6
Continuous
 62
     0
370
    30
100
AcDbCircle
 10
336.54615
 20
948.585429
 30
0.0
 40
5.000225295555831
100
AcDbArc
 50
20.926621
 51
90.366922
  0
ARC
  5
2C6
330
1EE
100
AcDbEntity
  8
0
  6
Continuous
 62
     0
370
    30
100
AcDbCircle
 10
336.54615
 20
971.085882
 30
0.0
 40
5.000225295547901
100
AcDbArc
 50
269.633078
 51
339.073379
  0
LWPOLYLINE
  5
2C7
330
1EE
100
AcDbEntity
  8
0
  6
Continuous
 62
     0
370
    30
100
AcDbPolyline
 90
       11
 70
     0
 43
0.0
 10
341.216553
 20
969.299927
 10
341.466583
 20
969.858459
 10
341.777161
 20
970.385925
 10
342.144348
 20
970.875427
 10
342.56369
 20
971.321228
 10
343.029938
 20
971.717651
 10
343.537384
 20
972.059753
 10
344.079651
 20
972.343445
 10
344.650085
 20
972.565125
 10
345.241608
 20
972.722412
 10
345.854248
 20
972.812927
  0
LWPOLYLINE
  5
2C8
330
1EE
100
AcDbEntity
  8
0
  6
Continuous
 62
     0
370
    30
100
AcDbPolyline
 90
       11
 70
     0
 43
0.0
 10
341.216553
 20
950.371399
 10
341.466583
 20
949.812805
 10
341.777161
 20
949.2854
 10
342.144348
 20
948.795837
 10
342.56369
 20
948.350098
 10
343.029938
 20
947.953674
 10
343.537384
 20
947.611572
 10
344.079651
 20
947.327881
 10
344.650085
 20
947.106201
 10
345.241608
 20
946.948853
 10
345.854248
 20
946.858398
  0
LINE
  5
2C9
330
1EE
100
AcDbEntity
  8
0
  6
Continuous
 62
     0
370
    30
100
AcDbLine
 10
332.853827
 20
944.514028
 30
0.0
 11
332.853828
 21
959.835655
 31
0.0
  0
LINE
  5
2CA
330
1EE
100
AcDbEntity
  8
0
  6
Continuous
 62
     0
370
    30
100
AcDbLine
 10
332.853828
 20
959.835655
 30
0.0
 11
332.853827
 21
975.157282
 31
0.0
  0
LINE
  5
2CB
330
1EE
100
AcDbEntity
  8
0
  6
Continuous
 62
     0
370
     0
100
AcDbLine
 10
326.214835
 20
983.04066
 30
0.0
 11
326.214836
 21
959.835655
 31
0.0
  0
LINE
  5
2CC
330
1EE
100
AcDbEntity
  8
0
  6
Continuous
 62
     0
370
     0
100
AcDbLine
 10
326.214836
 20
959.835655
 30
0.0
 11
326.214835
 21
936.63065
 31
0.0
  0
LINE
  5
2CD
330
1EE
100
AcDbEntity
  8
0
  6
Continuous
 62
     0
370
     0
100
AcDbLine
 10
302.33573
 20
987.163215
 30
0.0
 11
302.335731
 21
959.835655
 31
0.0
  0
LINE
  5
2CE
330
1EE
100
AcDbEntity
  8
0
  6
Continuous
 62
     0
370
     0
100
AcDbLine
 10
302.335731
 20
959.835655
 30
0.0
 11
302.33573
 21
932.508095
 31
0.0
  0
LINE
  5
2CF
330
1EE
100
AcDbEntity
  8
0
  6
Continuous
 62
     0
370
     0
100
AcDbLine
 10
297.335468
 20
989.840016
 30
0.0
 11
297.33547
 21
959.835655
 31
0.0
  0
LINE
  5
2D0
330
1EE
100
AcDbEntity
  8
0
  6
Continuous
 62
     0
370
     0
100
AcDbLine
 10
297.33547
 20
959.835655
 30
0.0
 11
297.335468
 21
929.831295
 31
0.0
  0
LINE
  5
2D1
330
1EE
100
AcDbEntity
  8
0
  6
Continuous
 62
     0
370
    30
100
AcDbLine
 10
291.453827
 20
992.335655
 30
0.0
 11
291.453828
 21
959.835655
 31
0.0
  0
LINE
  5
2D2
330
1EE
100
AcDbEntity
  8
0
  6
Continuous
 62
     0
370
    30
100
AcDbLine
 10
291.453828
 20
959.835655
 30
0.0
 11
291.453827
 21
927.335655
 31
0.0
  0
ARC
  5
2D3
330
1EE
100
AcDbEntity
  8
0
  6
Continuous
 62
     0
370
    30
100
AcDbCircle
 10
291.529738
 20
935.3354
 30
0.0
 40
8.000104675765876
100
AcDbArc
 50
269.456324
 51
316.527674
  0
ARC
  5
2D4
330
1EE
100
AcDbEntity
  8
0
  6
Continuous
 62
     0
370
    30
100
AcDbCircle
 10
291.529738
 20
984.335911
 30
0.0
 40
8.000104675756969
100
AcDbArc
 50
43.472326
 51
90.543676
  0
ARC
  5
2D5
330
1EE
100
AcDbEntity
  8
0
  6
Continuous
 62
     0
370
    30
100
AcDbCircle
 10
303.8669
 20
996.032083
 30
0.0
 40
9.000072052871332
100
AcDbArc
 50
223.472152
 51
260.204701
  0
ARC
  5
2D6
330
1EE
100
AcDbEntity
  8
0
  6
Continuous
 62
     0
370
    30
100
AcDbCircle
 10
303.8669
 20
923.639228
 30
0.0
 40
9.000072052855524
100
AcDbArc
 50
99.795299
 51
136.527848
  0
LINE
  5
2D7
330
1EE
100
AcDbEntity
  8
0
  6
Continuous
 62
     0
370
    30
100
AcDbLine
 10
326.214835
 20
936.63065
 30
0.0
 11
302.33573
 21
932.508095
 31
0.0
  0
LINE
  5
2D8
330
1EE
100
AcDbEntity
  8
0
  6
Continuous
 62
     0
370
    30
100
AcDbLine
 10
326.214835
 20
983.04066
 30
0.0
 11
302.33573
 21
987.163215
 31
0.0
  0
ARC
  5
2D9
330
1EE
100
AcDbEntity
  8
0
  6
Continuous
 62
     0
370
    30
100
AcDbCircle
 10
324.853825
 20
944.51403
 30
0.0
 40
8.000001724297917
100
AcDbArc
 50
279.795157
 51
359.992608
  0
ARC
  5
2DA
330
1EE
100
AcDbEntity
  8
0
  6
Continuous
 62
     0
370
    30
100
AcDbCircle
 10
324.853825
 20
975.15728
 30
0.0
 40
8.00000172429664
100
AcDbArc
 50
0.007392
 51
80.204843
  0
ENDBLK
  5
2DC
330
1EE
100
AcDbEntity
  8
0
100
AcDbBlockEnd
  0
BLOCK
  5
3CB
330
2DE
100
AcDbEntity
  8
0
100
AcDbBlockBegin
  2
d
 70
     0
 10
-43.300781
 20
0.0
 30
0.0
  3
d
  1

  0
LINE
  5
2DF
330
2DE
100
AcDbEntity
  8
0
  6
Continuous
 62
     0
370
     0
100
AcDbLine
 10
-127.611771
 20
759.832563
 30
0.0
 11
-127.611771
 21
769.300032
 31
0.0
  0
LWPOLYLINE
  5
2E0
330
2DE
100
AcDbEntity
  8
0
  6
Continuous
 62
     0
370
     0
100
AcDbPolyline
 90
       19
 70
     0
 43
0.0
 10
-127.611771
 20
750.37146
 10
-127.611771
 20
750.401184
 10
-127.611771
 20
750.494385
 10
-127.611771
 20
750.655518
 10
-127.611771
 20
750.888
 10
-127.611771
 20
751.193787
 10
-127.611771
 20
751.573181
 10
-127.611771
 20
752.024719
 10
-127.611771
 20
752.544983
 10
-127.611771
 20
753.128662
 10
-127.611771
 20
753.768921
 10
-127.611771
 20
754.457214
 10
-127.611771
 20
755.184265
 10
-127.611771
 20
755.939941
 10
-127.611771
 20
756.713928
 10
-127.611771
 20
757.496216
 10
-127.611771
 20
758.277222
 10
-127.611771
 20
759.048401
 10
-127.611771
 20
759.832581
  0
LINE
  5
2E1
330
2DE
100
AcDbEntity
  8
0
  6
Continuous
 62
     0
370
     0
100
AcDbLine
 10
-132.749045
 20
753.21112
 30
0.0
 11
-132.749045
 21
747.019008
 31
0.0
  0
LWPOLYLINE
  5
2E2
330
2DE
100
AcDbEntity
  8
0
  6
Continuous
 62
     0
370
    30
100
AcDbPolyline
 90
        5
 70
     0
 43
0.0
 10
-132.749039
 20
747.018982
 10
-132.538315
 20
746.947754
 10
-132.38356
 20
746.898499
 10
-132.287125
 20
746.869202
 10
-132.249313
 20
746.858521
  0
LWPOLYLINE
  5
2E3
330
2DE
100
AcDbEntity
  8
0
  6
Continuous
 62
     0
370
    30
100
AcDbPolyline
 90
        5
 70
     0
 43
0.0
 10
-132.249313
 20
772.812988
 10
-132.280319
 20
772.803894
 10
-132.37056
 20
772.776306
 10
-132.519135
 20
772.728882
 10
-132.749039
 20
772.651001
  0
LINE
  5
2E4
330
2DE
100
AcDbEntity
  8
0
  6
Continuous
 62
     0
370
     0
100
AcDbLine
 10
-132.749045
 20
772.651019
 30
0.0
 11
-132.749045
 21
766.439832
 31
0.0
  0
LINE
  5
2E5
330
2DE
100
AcDbEntity
  8
0
  6
Continuous
 62
     0
370
     0
100
AcDbLine
 10
-122.909347
 20
759.833644
 30
0.0
 11
-122.909346
 21
766.08585
 31
0.0
  0
LWPOLYLINE
  5
2E6
330
2DE
100
AcDbEntity
  8
0
  6
Continuous
 62
     0
370
     0
100
AcDbPolyline
 90
       16
 70
     0
 43
0.0
 10
-122.909348
 20
753.585632
 10
-122.909348
 20
753.614014
 10
-122.909348
 20
753.703308
 10
-122.909348
 20
753.858215
 10
-122.909348
 20
754.081909
 10
-122.909348
 20
754.375366
 10
-122.909348
 20
754.736938
 10
-122.909348
 20
755.162781
 10
-122.909348
 20
755.646301
 10
-122.909348
 20
756.178772
 10
-122.909348
 20
756.75
 10
-122.909348
 20
757.348511
 10
-122.909348
 20
757.962769
 10
-122.909348
 20
758.581543
 10
-122.909348
 20
759.194458
 10
-122.909348
 20
759.833618
  0
ARC
  5
2E7
330
2DE
100
AcDbEntity
  8
0
  6
Continuous
 62
     0
370
     0
100
AcDbCircle
 10
-137.249048
 20
759.824371
 30
0.0
 40
6.285714285688858
100
AcDbArc
 50
0.000003
 51
179.999997
  0
ARC
  5
2E8
330
2DE
100
AcDbEntity
  8
0
  6
Continuous
 62
     0
370
     0
100
AcDbCircle
 10
-137.249048
 20
759.824372
 30
0.0
 40
6.285714285688858
100
AcDbArc
 50
180.000003
 51
359.999997
  0
ELLIPSE
  5
2E9
330
2DE
100
AcDbEntity
  8
0
  6
Continuous
 62
     0
370
     0
100
AcDbEllipse
 10
-137.249047
 20
781.710085
 30
0.0
 11
4.999999999980004
 21
7.351698838451571E-11
 31
0.0
210
0.0
220
0.0
230
-1.0
 40
0.000336
 41
0.0000005437145194
 42
3.141592697301184
  0
LINE
  5
2EA
330
2DE
100
AcDbEntity
  8
0
  6
Continuous
 62
     0
370
    30
100
AcDbLine
 10
-142.249047
 20
781.710085
 30
0.0
 11
-142.249047
 21
772.835746
 31
0.0
  0
LWPOLYLINE
  5
2EB
330
2DE
100
AcDbEntity
  8
0
  6
Continuous
 62
     0
370
    30
100
AcDbPolyline
 90
       23
 70
     0
 43
0.0
 10
-142.243561
 20
772.833557
 10
-142.178619
 20
772.808594
 10
-142.040451
 20
772.756287
 10
-141.832382
 20
772.680542
 10
-141.559067
 20
772.585754
 10
-141.225555
 20
772.47699
 10
-140.837189
 20
772.360046
 10
-140.399216
 20
772.240723
 10
-139.916229
 20
772.127014
 10
-139.393372
 20
772.025574
 10
-138.837616
 20
771.938477
 10
-138.25621
 20
771.874207
 10
-137.657364
 20
771.840881
 10
-137.051407
 20
771.837158
 10
-136.448944
 20
771.861267
 10
-135.860336
 20
771.913757
 10
-135.294617
 20
771.992249
 10
-134.759048
 20
772.09021
 10
-134.260071
 20
772.201355
 10
-133.803772
 20
772.319397
 10
-133.396179
 20
772.438171
 10
-133.043442
 20
772.55072
 10
-132.749039
 20
772.651001
  0
ARC
  5
2EC
330
2DE
100
AcDbEntity
  8
0
  6
Continuous
 62
     0
370
    30
100
AcDbCircle
 10
-152.249046
 20
781.710085
 30
0.0
 40
9.999999074949262
100
AcDbArc
 50
0.0
 51
38.213213
  0
ARC
  5
2ED
330
2DE
100
AcDbEntity
  8
0
  6
Continuous
 62
     0
370
     0
100
AcDbCircle
 10
-137.249047
 20
11405.312147
 30
0.0
 40
10617.41856871377
100
AcDbArc
 50
269.961454
 51
270.038546
  0
ARC
  5
2EE
330
2DE
100
AcDbEntity
  8
0
  6
Continuous
 62
     0
370
    30
100
AcDbCircle
 10
-141.249047
 20
790.370339
 30
0.0
 40
3.999999630059312
100
AcDbArc
 50
124.849902
 51
218.213212
  0
ARC
  5
2EF
330
2DE
100
AcDbEntity
  8
0
  6
Continuous
 62
     0
370
     0
100
AcDbCircle
 10
-137.249047
 20
10136.979172
 30
0.0
 40
9343.328340412369
100
AcDbArc
 50
269.961454
 51
270.038546
  0
ARC
  5
2F0
330
2DE
100
AcDbEntity
  8
0
  6
Continuous
 62
     0
370
    30
100
AcDbCircle
 10
-137.249047
 20
784.625775
 30
0.0
 40
11.00000043128446
100
AcDbArc
 50
90.0
 51
124.849903
  0
ELLIPSE
  5
2F1
330
2DE
100
AcDbEntity
  8
0
  6
Continuous
 62
     0
370
     0
100
AcDbEllipse
 10
-137.249047
 20
737.961408
 30
0.0
 11
-4.999999999980004
 21
-7.351698838451571E-11
 31
0.0
210
0.0
220
0.0
230
1.0
 40
0.000336
 41
-0.000000043711391
 42
3.141593109881531
  0
LINE
  5
2F2
330
2DE
100
AcDbEntity
  8
0
  6
Continuous
 62
     0
370
    30
100
AcDbLine
 10
-142.249047
 20
737.961408
 30
0.0
 11
-142.249047
 21
746.835748
 31
0.0
  0
LWPOLYLINE
  5
2F3
330
2DE
100
AcDbEntity
  8
0
  6
Continuous
 62
     0
370
    30
100
AcDbPolyline
 90
       24
 70
     0
 43
0.0
 10
-132.749039
 20
747.018982
 10
-133.032227
 20
747.115173
 10
-133.373016
 20
747.223999
 10
-133.765137
 20
747.338928
 10
-134.202026
 20
747.453247
 10
-134.680023
 20
747.562012
 10
-135.194656
 20
747.65979
 10
-135.739716
 20
747.73999
 10
-136.308044
 20
747.797058
 10
-136.891586
 20
747.827332
 10
-137.481018
 20
747.830994
 10
-138.066757
 20
747.807739
 10
-138.639023
 20
747.755615
 10
-139.189301
 20
747.677551
 10
-139.711014
 20
747.583435
 10
-140.197678
 20
747.477966
 10
-140.643478
 20
747.363647
 10
-141.044357
 20
747.248108
 10
-141.395828
 20
747.137878
 10
-141.692963
 20
747.038208
 10
-141.930847
 20
746.954285
 10
-142.105194
 20
746.89032
 10
-142.212082
 20
746.84967
 10
-142.249054
 20
746.835754
  0
ARC
  5
2F4
330
2DE
100
AcDbEntity
  8
0
  6
Continuous
 62
     0
370
    30
100
AcDbCircle
 10
-152.249046
 20
737.961408
 30
0.0
 40
9.999999074681824
100
AcDbArc
 50
321.786787
 51
360.0
  0
ARC
  5
2F5
330
2DE
100
AcDbEntity
  8
0
  6
Continuous
 62
     0
370
     0
100
AcDbCircle
 10
-137.249047
 20
11349.191679
 30
0.0
 40
10617.4185687768
100
AcDbArc
 50
269.961454
 51
270.038546
  0
ARC
  5
2F6
330
2DE
100
AcDbEntity
  8
0
  6
Continuous
 62
     0
370
    30
100
AcDbCircle
 10
-141.249047
 20
729.301155
 30
0.0
 40
3.999999630099594
100
AcDbArc
 50
141.786788
 51
235.150098
  0
ARC
  5
2F7
330
2DE
100
AcDbEntity
  8
0
  6
Continuous
 62
     0
370
     0
100
AcDbCircle
 10
-137.249047
 20
10069.344774
 30
0.0
 40
9343.328340443253
100
AcDbArc
 50
269.961454
 51
270.038546
  0
ARC
  5
2F8
330
2DE
100
AcDbEntity
  8
0
  6
Continuous
 62
     0
370
    30
100
AcDbCircle
 10
-137.249047
 20
735.045718
 30
0.0
 40
11.00000004738875
100
AcDbArc
 50
235.150097
 51
237.422821
  0
LWPOLYLINE
  5
2F9
330
2DE
100
AcDbEntity
  8
0
  6
Continuous
 62
     0
370
     0
100
AcDbPolyline
 90
       42
 70
     0
 43
0.0
 10
-149.249039
 20
746.837952
 10
-149.249039
 20
746.853027
 10
-149.249039
 20
746.934631
 10
-149.249039
 20
747.087219
 10
-149.249039
 20
747.314453
 10
-149.249039
 20
747.618896
 10
-149.249039
 20
748.001892
 10
-149.249039
 20
748.463379
 10
-149.249039
 20
749.001709
 10
-149.249039
 20
749.613708
 10
-149.249039
 20
750.294617
 10
-149.249039
 20
751.038269
 10
-149.249039
 20
751.837341
 10
-149.249039
 20
752.683411
 10
-149.249039
 20
753.567261
 10
-149.249039
 20
754.479492
 10
-149.249039
 20
755.410522
 10
-149.249039
 20
756.35083
 10
-149.249039
 20
757.291687
 10
-149.249039
 20
758.224731
 10
-149.249039
 20
759.142639
 10
-149.249039
 20
760.045288
 10
-149.249039
 20
760.965393
 10
-149.249039
 20
761.903259
 10
-149.249039
 20
762.851624
 10
-149.249039
 20
763.802368
 10
-149.249039
 20
764.746704
 10
-149.249039
 20
765.675232
 10
-149.249039
 20
766.578308
 10
-149.249039
 20
767.44635
 10
-149.249039
 20
768.270081
 10
-149.249039
 20
769.040894
 10
-149.249039
 20
769.751099
 10
-149.249039
 20
770.394287
 10
-149.249039
 20
770.965332
 10
-149.249039
 20
771.460754
 10
-149.249039
 20
771.878479
 10
-149.249039
 20
772.21814
 10
-149.249039
 20
772.480652
 10
-149.249039
 20
772.668335
 10
-149.249039
 20
772.784485
 10
-149.249039
 20
772.833557
  0
LINE
  5
2FA
330
2DE
100
AcDbEntity
  8
0
  6
Continuous
 62
     0
370
    30
100
AcDbLine
 10
-154.249045
 20
767.834405
 30
0.0
 11
-154.249045
 21
751.837088
 31
0.0
  0
LINE
  5
2FB
330
2DE
100
AcDbEntity
  8
0
  6
Continuous
 62
     0
370
    30
100
AcDbLine
 10
-149.249045
 20
746.835747
 30
0.0
 11
-142.249018
 21
746.835747
 31
0.0
  0
LINE
  5
2FC
330
2DE
100
AcDbEntity
  8
0
  6
Continuous
 62
     0
370
    30
100
AcDbLine
 10
-149.249045
 20
772.835747
 30
0.0
 11
-142.249018
 21
772.835747
 31
0.0
  0
ARC
  5
2FD
330
2DE
100
AcDbEntity
  8
0
  6
Continuous
 62
     0
370
    30
100
AcDbCircle
 10
-149.249038
 20
767.835743
 30
0.0
 40
5.000006581817457
100
AcDbArc
 50
90.000075
 51
179.999925
  0
ARC
  5
2FE
330
2DE
100
AcDbEntity
  8
0
  6
Continuous
 62
     0
370
    30
100
AcDbCircle
 10
-149.249038
 20
751.83575
 30
0.0
 40
5.00000658181826
100
AcDbArc
 50
180.000075
 51
269.999925
  0
ARC
  5
2FF
330
2DE
100
AcDbEntity
  8
0
  6
Continuous
 62
     0
370
    30
100
AcDbCircle
 10
-137.249046
 20
735.045694
 30
0.0
 40
10.99998090617901
100
AcDbArc
 50
237.422751
 51
304.849966
  0
ARC
  5
300
330
2DE
100
AcDbEntity
  8
0
  6
Continuous
 62
     0
370
    30
100
AcDbCircle
 10
-133.249062
 20
729.301157
 30
0.0
 40
4.000010773477492
100
AcDbArc
 50
304.850051
 51
38.213059
  0
ARC
  5
301
330
2DE
100
AcDbEntity
  8
0
  6
Continuous
 62
     0
370
    30
100
AcDbCircle
 10
-122.248962
 20
737.961438
 30
0.0
 40
10.00008449768935
100
AcDbArc
 50
180.000172
 51
218.213041
  0
LINE
  5
302
330
2DE
100
AcDbEntity
  8
0
  6
Continuous
 62
     0
370
    30
100
AcDbLine
 10
-132.249047
 20
746.858495
 30
0.0
 11
-132.249047
 21
737.961408
 31
0.0
  0
ARC
  5
303
330
2DE
100
AcDbEntity
  8
0
  6
Continuous
 62
     0
370
    30
100
AcDbCircle
 10
-137.249354
 20
784.624827
 30
0.0
 40
11.00095513776652
100
AcDbArc
 50
55.151612
 51
89.998398
  0
ARC
  5
304
330
2DE
100
AcDbEntity
  8
0
  6
Continuous
 62
     0
370
    30
100
AcDbCircle
 10
-133.249062
 20
790.370337
 30
0.0
 40
4.000010773470752
100
AcDbArc
 50
321.786941
 51
55.149949
  0
ARC
  5
305
330
2DE
100
AcDbEntity
  8
0
  6
Continuous
 62
     0
370
    30
100
AcDbCircle
 10
-122.248962
 20
781.710055
 30
0.0
 40
10.00008449769535
100
AcDbArc
 50
141.786959
 51
179.999828
  0
LINE
  5
306
330
2DE
100
AcDbEntity
  8
0
  6
Continuous
 62
     0
370
    30
100
AcDbLine
 10
-132.249047
 20
772.812999
 30
0.0
 11
-132.249047
 21
781.710085
 31
0.0
  0
CIRCLE
  5
307
330
2DE
100
AcDbEntity
  8
0
  6
Continuous
 62
     0
370
    30
100
AcDbCircle
 10
-137.249048
 20
759.825476
 30
0.0
 40
7.999999890432298
  0
LINE
  5
308
330
2DE
100
AcDbEntity
  8
0
  6
Continuous
 62
     0
370
    30
100
AcDbLine
 10
-122.909346
 20
753.585643
 30
0.0
 11
-119.249045
 21
753.573866
 31
0.0
  0
LINE
  5
309
330
2DE
100
AcDbEntity
  8
0
  6
Continuous
 62
     0
370
    30
100
AcDbLine
 10
-122.909346
 20
766.08585
 30
0.0
 11
-119.249045
 21
766.097628
 31
0.0
  0
ARC
  5
30A
330
2DE
100
AcDbEntity
  8
0
  6
Continuous
 62
     0
370
    30
100
AcDbCircle
 10
-122.941368
 20
748.58552
 30
0.0
 40
5.000225295552327
100
AcDbArc
 50
89.633078
 51
159.073379
  0
ARC
  5
30B
330
2DE
100
AcDbEntity
  8
0
  6
Continuous
 62
     0
370
    30
100
AcDbCircle
 10
-122.941368
 20
771.085973
 30
0.0
 40
5.000225295552076
100
AcDbArc
 50
200.926621
 51
270.366922
  0
LWPOLYLINE
  5
30C
330
2DE
100
AcDbEntity
  8
0
  6
Continuous
 62
     0
370
    30
100
AcDbPolyline
 90
       11
 70
     0
 43
0.0
 10
-127.611771
 20
769.300049
 10
-127.861794
 20
769.858582
 10
-128.172363
 20
770.385986
 10
-128.539566
 20
770.875549
 10
-128.958893
 20
771.321289
 10
-129.425156
 20
771.717712
 10
-129.932602
 20
772.059814
 10
-130.474869
 20
772.343567
 10
-131.045303
 20
772.565186
 10
-131.636826
 20
772.722534
 10
-132.249481
 20
772.812988
  0
LWPOLYLINE
  5
30D
330
2DE
100
AcDbEntity
  8
0
  6
Continuous
 62
     0
370
    30
100
AcDbPolyline
 90
       11
 70
     0
 43
0.0
 10
-127.611771
 20
750.37146
 10
-127.861794
 20
749.812927
 10
-128.172363
 20
749.285522
 10
-128.539566
 20
748.795959
 10
-128.958893
 20
748.350159
 10
-129.425156
 20
747.953735
 10
-129.932602
 20
747.611633
 10
-130.474869
 20
747.327942
 10
-131.045303
 20
747.106262
 10
-131.636826
 20
746.948975
 10
-132.249481
 20
746.858459
  0
LINE
  5
30E
330
2DE
100
AcDbEntity
  8
0
  6
Continuous
 62
     0
370
    30
100
AcDbLine
 10
-119.249045
 20
759.835747
 30
0.0
 11
-119.249045
 21
744.51412
 31
0.0
  0
LINE
  5
30F
330
2DE
100
AcDbEntity
  8
0
  6
Continuous
 62
     0
370
    30
100
AcDbLine
 10
-119.249045
 20
775.157373
 30
0.0
 11
-119.249045
 21
759.835747
 31
0.0
  0
LINE
  5
310
330
2DE
100
AcDbEntity
  8
0
  6
Continuous
 62
     0
370
     0
100
AcDbLine
 10
-112.610054
 20
759.835747
 30
0.0
 11
-112.610053
 21
783.040752
 31
0.0
  0
LINE
  5
311
330
2DE
100
AcDbEntity
  8
0
  6
Continuous
 62
     0
370
     0
100
AcDbLine
 10
-112.610053
 20
736.630742
 30
0.0
 11
-112.610054
 21
759.835747
 31
0.0
  0
LINE
  5
312
330
2DE
100
AcDbEntity
  8
0
  6
Continuous
 62
     0
370
     0
100
AcDbLine
 10
-88.730949
 20
759.835747
 30
0.0
 11
-88.730948
 21
787.163307
 31
0.0
  0
LINE
  5
313
330
2DE
100
AcDbEntity
  8
0
  6
Continuous
 62
     0
370
     0
100
AcDbLine
 10
-88.730948
 20
732.508187
 30
0.0
 11
-88.730949
 21
759.835747
 31
0.0
  0
LINE
  5
314
330
2DE
100
AcDbEntity
  8
0
  6
Continuous
 62
     0
370
     0
100
AcDbLine
 10
-83.730687
 20
759.835747
 30
0.0
 11
-83.730686
 21
789.840107
 31
0.0
  0
LINE
  5
315
330
2DE
100
AcDbEntity
  8
0
  6
Continuous
 62
     0
370
     0
100
AcDbLine
 10
-83.730686
 20
729.831386
 30
0.0
 11
-83.730687
 21
759.835747
 31
0.0
  0
LINE
  5
316
330
2DE
100
AcDbEntity
  8
0
  6
Continuous
 62
     0
370
    30
100
AcDbLine
 10
-77.849046
 20
759.835747
 30
0.0
 11
-77.849045
 21
792.335747
 31
0.0
  0
LINE
  5
317
330
2DE
100
AcDbEntity
  8
0
  6
Continuous
 62
     0
370
    30
100
AcDbLine
 10
-77.849045
 20
727.335747
 30
0.0
 11
-77.849046
 21
759.835747
 31
0.0
  0
ARC
  5
318
330
2DE
100
AcDbEntity
  8
0
  6
Continuous
 62
     0
370
    30
100
AcDbCircle
 10
-77.924956
 20
735.335491
 30
0.0
 40
8.00010467575851
100
AcDbArc
 50
223.472326
 51
270.543676
  0
ARC
  5
319
330
2DE
100
AcDbEntity
  8
0
  6
Continuous
 62
     0
370
    30
100
AcDbCircle
 10
-77.924956
 20
784.336002
 30
0.0
 40
8.00010467575644
100
AcDbArc
 50
89.456324
 51
136.527674
  0
ARC
  5
31A
330
2DE
100
AcDbEntity
  8
0
  6
Continuous
 62
     0
370
    30
100
AcDbCircle
 10
-90.262118
 20
796.032174
 30
0.0
 40
9.000072052857856
100
AcDbArc
 50
279.795299
 51
316.527848
  0
ARC
  5
31B
330
2DE
100
AcDbEntity
  8
0
  6
Continuous
 62
     0
370
    30
100
AcDbCircle
 10
-90.262118
 20
723.639319
 30
0.0
 40
9.000072052860524
100
AcDbArc
 50
43.472152
 51
80.204701
  0
LINE
  5
31C
330
2DE
100
AcDbEntity
  8
0
  6
Continuous
 62
     0
370
    30
100
AcDbLine
 10
-112.610053
 20
736.630742
 30
0.0
 11
-88.730948
 21
732.508187
 31
0.0
  0
LINE
  5
31D
330
2DE
100
AcDbEntity
  8
0
  6
Continuous
 62
     0
370
    30
100
AcDbLine
 10
-112.610053
 20
783.040752
 30
0.0
 11
-88.730948
 21
787.163307
 31
0.0
  0
ARC
  5
31E
330
2DE
100
AcDbEntity
  8
0
  6
Continuous
 62
     0
370
    30
100
AcDbCircle
 10
-111.249043
 20
744.514121
 30
0.0
 40
8.000001724297373
100
AcDbArc
 50
180.007392
 51
260.204843
  0
ARC
  5
31F
330
2DE
100
AcDbEntity
  8
0
  6
Continuous
 62
     0
370
    30
100
AcDbCircle
 10
-111.249043
 20
775.157372
 30
0.0
 40
8.00000172429758
100
AcDbArc
 50
99.795157
 51
179.992608
  0
LINE
  5
320
330
2DE
100
AcDbEntity
  8
0
  6
Continuous
 62
     0
370
     0
100
AcDbLine
 10
-87.36391
 20
639.83575
 30
0.0
 11
-87.363908
 21
575.320481
 31
0.0
  0
LINE
  5
321
330
2DE
100
AcDbEntity
  8
0
  6
Continuous
 62
     0
370
     0
100
AcDbLine
 10
-87.363908
 20
704.351013
 30
0.0
 11
-87.36391
 21
639.83575
 31
0.0
  0
LINE
  5
322
330
2DE
100
AcDbEntity
  8
0
  6
Continuous
 62
     0
370
     0
100
AcDbLine
 10
-86.864143
 20
639.83575
 30
0.0
 11
-86.864141
 21
704.835747
 31
0.0
  0
LINE
  5
323
330
2DE
100
AcDbEntity
  8
0
  6
Continuous
 62
     0
370
     0
100
AcDbLine
 10
-86.864141
 20
574.835747
 30
0.0
 11
-86.864143
 21
639.83575
 31
0.0
  0
LINE
  5
324
330
2DE
100
AcDbEntity
  8
0
  6
Continuous
 62
     0
370
    30
100
AcDbLine
 10
-88.261358
 20
639.835748
 30
0.0
 11
-88.261357
 21
620.585807
 31
0.0
  0
LINE
  5
325
330
2DE
100
AcDbEntity
  8
0
  6
Continuous
 62
     0
370
     0
100
AcDbLine
 10
-88.261357
 20
659.085687
 30
0.0
 11
-88.261358
 21
639.835748
 31
0.0
  0
LINE
  5
326
330
2DE
100
AcDbEntity
  8
0
  6
Continuous
 62
     0
370
    30
100
AcDbLine
 10
-77.849045
 20
639.835747
 30
0.0
 11
-77.849045
 21
704.835747
 31
0.0
  0
LINE
  5
327
330
2DE
100
AcDbEntity
  8
0
  6
Continuous
 62
     0
370
    30
100
AcDbLine
 10
-77.849045
 20
574.835747
 30
0.0
 11
-77.849045
 21
639.835747
 31
0.0
  0
LWPOLYLINE
  5
328
330
2DE
100
AcDbEntity
  8
0
  6
Continuous
 62
     0
370
     0
100
AcDbPolyline
 90
       10
 70
     0
 43
0.0
 10
-83.349045
 20
574.86969
 10
-82.990303
 20
574.868652
 10
-82.640915
 20
574.865784
 10
-82.312721
 20
574.861389
 10
-82.015617
 20
574.856018
 10
-81.758217
 20
574.85022
 10
-81.547523
 20
574.844727
 10
-81.38958
 20
574.840149
 10
-81.28891
 20
574.837036
 10
-81.249298
 20
574.835754
  0
LWPOLYLINE
  5
329
330
2DE
100
AcDbEntity
  8
0
  6
Continuous
 62
     0
370
     0
100
AcDbPolyline
 90
       10
 70
     0
 43
0.0
 10
-85.449043
 20
574.835754
 10
-85.417061
 20
574.836731
 10
-85.323845
 20
574.839661
 10
-85.170967
 20
574.844116
 10
-84.963303
 20
574.849609
 10
-84.707367
 20
574.855469
 10
-84.410416
 20
574.861023
 10
-84.081642
 20
574.86554
 10
-83.731293
 20
574.86853
 10
-83.349045
 20
574.86969
  0
LINE
  5
32A
330
2DE
100
AcDbEntity
  8
0
  6
Continuous
 62
     0
370
    30
100
AcDbLine
 10
-85.449046
 20
574.835747
 30
0.0
 11
-81.249358
 21
574.835747
 31
0.0
  0
LINE
  5
32B
330
2DE
100
AcDbEntity
  8
0
  6
Continuous
 62
     0
370
    30
100
AcDbLine
 10
-77.849045
 20
704.835747
 30
0.0
 11
-86.864141
 21
704.835747
 31
0.0
  0
LINE
  5
32C
330
2DE
100
AcDbEntity
  8
0
  6
Continuous
 62
     0
370
    30
100
AcDbLine
 10
-77.849045
 20
574.835747
 30
0.0
 11
-81.249428
 21
574.835747
 31
0.0
  0
LINE
  5
32D
330
2DE
100
AcDbEntity
  8
0
  6
Continuous
 62
     0
370
    30
100
AcDbLine
 10
-85.449046
 20
574.835747
 30
0.0
 11
-86.864141
 21
574.835747
 31
0.0
  0
ARC
  5
32E
330
2DE
100
AcDbEntity
  8
0
  6
Continuous
 62
     0
370
    30
100
AcDbCircle
 10
2024.651664
 20
639.835761
 30
0.0
 40
2113.000708955717
100
AcDbArc
 50
180.521986
 51
181.749659
  0
ARC
  5
32F
330
2DE
100
AcDbEntity
  8
0
  6
Continuous
 62
     0
370
    30
100
AcDbCircle
 10
2024.651609
 20
639.835734
 30
0.0
 40
2113.000654196268
100
AcDbArc
 50
178.250341
 51
179.478014
  0
ARC
  5
330
330
2DE
100
AcDbEntity
  8
0
  6
Continuous
 62
     0
370
    30
100
AcDbCircle
 10
-86.864052
 20
575.335838
 30
0.0
 40
0.5000914569321467
100
AcDbArc
 50
181.759817
 51
269.989841
  0
ARC
  5
331
330
2DE
100
AcDbEntity
  8
0
  6
Continuous
 62
     0
370
    30
100
AcDbCircle
 10
-86.864052
 20
704.335655
 30
0.0
 40
0.5000914569297963
100
AcDbArc
 50
90.010159
 51
178.240183
  0
LINE
  5
332
330
2DE
100
AcDbEntity
  8
0
  6
Continuous
 62
     0
370
    30
100
AcDbLine
 10
-141.069046
 20
661.335747
 30
0.0
 11
-141.069046
 21
618.335747
 31
0.0
  0
LINE
  5
333
330
2DE
100
AcDbEntity
  8
0
  6
Continuous
 62
     0
370
    30
100
AcDbLine
 10
-141.069046
 20
618.335747
 30
0.0
 11
-140.569046
 21
617.835747
 31
0.0
  0
LINE
  5
334
330
2DE
100
AcDbEntity
  8
0
  6
Continuous
 62
     0
370
    30
100
AcDbLine
 10
-140.569046
 20
661.835747
 30
0.0
 11
-140.569046
 21
617.835747
 31
0.0
  0
LINE
  5
335
330
2DE
100
AcDbEntity
  8
0
  6
Continuous
 62
     0
370
    30
100
AcDbLine
 10
-127.319046
 20
617.835747
 30
0.0
 11
-91.069046
 21
617.835747
 31
0.0
  0
LINE
  5
336
330
2DE
100
AcDbEntity
  8
0
  6
Continuous
 62
     0
370
    30
100
AcDbLine
 10
-91.069046
 20
617.835747
 30
0.0
 11
-91.069046
 21
661.835747
 31
0.0
  0
LINE
  5
337
330
2DE
100
AcDbEntity
  8
0
  6
Continuous
 62
     0
370
    30
100
AcDbLine
 10
-136.819046
 20
617.835747
 30
0.0
 11
-140.569046
 21
617.835747
 31
0.0
  0
LWPOLYLINE
  5
338
330
2DE
100
AcDbEntity
  8
0
  6
Continuous
 62
     0
370
     0
100
AcDbPolyline
 90
       26
 70
     0
 43
0.0
 10
-136.819046
 20
617.835754
 10
-136.781525
 20
617.843872
 10
-136.669373
 20
617.867554
 10
-136.484848
 20
617.905457
 10
-136.231247
 20
617.955139
 10
-135.912262
 20
618.013611
 10
-135.533005
 20
618.077148
 10
-135.099594
 20
618.141846
 10
-134.619034
 20
618.203735
 10
-134.097992
 20
618.259033
 10
-133.542862
 20
618.304077
 10
-132.963074
 20
618.335999
 10
-132.368744
 20
618.352539
 10
-131.769638
 20
618.352539
 10
-131.175293
 20
618.33606
 10
-130.595505
 20
618.304077
 10
-130.040359
 20
618.259033
 10
-129.519302
 20
618.203796
 10
-129.038727
 20
618.141846
 10
-128.605301
 20
618.077148
 10
-128.226013
 20
618.013611
 10
-127.906937
 20
617.955139
 10
-127.653282
 20
617.905457
 10
-127.468826
 20
617.867615
 10
-127.356552
 20
617.843872
 10
-127.319046
 20
617.835754
  0
LWPOLYLINE
  5
339
330
2DE
100
AcDbEntity
  8
0
  6
Continuous
 62
     0
370
     0
100
AcDbPolyline
 90
       26
 70
     0
 43
0.0
 10
-127.969048
 20
661.835754
 10
-128.000015
 20
661.829712
 10
-128.098114
 20
661.812073
 10
-128.257034
 20
661.783936
 10
-128.475357
 20
661.747009
 10
-128.750198
 20
661.703613
 10
-129.076965
 20
661.656433
 10
-129.450439
 20
661.608459
 10
-129.864532
 20
661.5625
 10
-130.313446
 20
661.521484
 10
-130.79158
 20
661.488159
 10
-131.290848
 20
661.464417
 10
-131.802567
 20
661.452026
 10
-132.318451
 20
661.451782
 10
-132.830399
 20
661.463745
 10
-133.33017
 20
661.487183
 10
-133.809082
 20
661.520325
 10
-134.259048
 20
661.561096
 10
-134.674438
 20
661.606873
 10
-135.049438
 20
661.654846
 10
-135.377853
 20
661.702148
 10
-135.654434
 20
661.745728
 10
-135.874634
 20
661.782837
 10
-136.035629
 20
661.811279
 10
-136.135742
 20
661.829346
 10
-136.168655
 20
661.835754
  0
LINE
  5
33A
330
2DE
100
AcDbEntity
  8
0
  6
Continuous
 62
     0
370
    30
100
AcDbLine
 10
-128.619046
 20
669.665747
 30
0.0
 11
-135.519046
 21
669.665747
 31
0.0
  0
LINE
  5
33B
330
2DE
100
AcDbEntity
  8
0
  6
Continuous
 62
     0
370
    30
100
AcDbLine
 10
-135.519046
 20
669.665747
 30
0.0
 11
-136.019046
 21
669.165747
 31
0.0
  0
LINE
  5
33C
330
2DE
100
AcDbEntity
  8
0
  6
Continuous
 62
     0
370
    30
100
AcDbLine
 10
-128.119046
 20
669.165747
 30
0.0
 11
-136.019046
 21
669.165747
 31
0.0
  0
LWPOLYLINE
  5
33D
330
2DE
100
AcDbEntity
  8
0
  6
Continuous
 62
     0
370
    30
100
AcDbPolyline
 90
       24
 70
     0
 43
0.0
 10
-128.118393
 20
661.835754
 10
-128.156631
 20
661.828857
 10
-128.268677
 20
661.809265
 10
-128.450439
 20
661.778809
 10
-128.697922
 20
661.739258
 10
-129.007385
 20
661.693604
 10
-129.374268
 20
661.645386
 10
-129.790741
 20
661.5979
 10
-130.248993
 20
661.554565
 10
-130.741714
 20
661.51886
 10
-131.259827
 20
661.493469
 10
-131.793335
 20
661.480347
 10
-132.332077
 20
661.480164
 10
-132.865845
 20
661.49292
 10
-133.38443
 20
661.518066
 10
-133.877777
 20
661.553589
 10
-134.336792
 20
661.596802
 10
-134.754272
 20
661.644226
 10
-135.122482
 20
661.692505
 10
-135.433578
 20
661.73822
 10
-135.682968
 20
661.778015
 10
-135.866714
 20
661.80896
 10
-135.980072
 20
661.828857
 10
-136.019043
 20
661.835754
  0
LINE
  5
33E
330
2DE
100
AcDbEntity
  8
0
  6
Continuous
 62
     0
370
    30
100
AcDbLine
 10
-136.019046
 20
661.835747
 30
0.0
 11
-136.019046
 21
669.165747
 31
0.0
  0
LINE
  5
33F
330
2DE
100
AcDbEntity
  8
0
  6
Continuous
 62
     0
370
    30
100
AcDbLine
 10
-91.069046
 20
658.835747
 30
0.0
 11
-88.261357
 21
658.835747
 31
0.0
  0
LINE
  5
340
330
2DE
100
AcDbEntity
  8
0
  6
Continuous
 62
     0
370
    30
100
AcDbLine
 10
-91.069046
 20
620.835747
 30
0.0
 11
-88.261357
 21
620.835747
 31
0.0
  0
LINE
  5
341
330
2DE
100
AcDbEntity
  8
0
  6
Continuous
 62
     0
370
    30
100
AcDbLine
 10
-136.819046
 20
617.835747
 30
0.0
 11
-127.319046
 21
617.835747
 31
0.0
  0
LINE
  5
342
330
2DE
100
AcDbEntity
  8
0
  6
Continuous
 62
     0
370
    30
100
AcDbLine
 10
-128.119046
 20
669.165973
 30
0.0
 11
-128.119046
 21
661.835747
 31
0.0
  0
LINE
  5
343
330
2DE
100
AcDbEntity
  8
0
  6
Continuous
 62
     0
370
    30
100
AcDbLine
 10
-127.969046
 20
661.835747
 30
0.0
 11
-128.118386
 21
661.835747
 31
0.0
  0
LINE
  5
344
330
2DE
100
AcDbEntity
  8
0
  6
Continuous
 62
     0
370
    30
100
AcDbLine
 10
-136.019046
 20
661.835747
 30
0.0
 11
-136.168649
 21
661.835747
 31
0.0
  0
LINE
  5
345
330
2DE
100
AcDbEntity
  8
0
  6
Continuous
 62
     0
370
    30
100
AcDbLine
 10
-128.619046
 20
669.665747
 30
0.0
 11
-128.119046
 21
669.165747
 31
0.0
  0
LINE
  5
346
330
2DE
100
AcDbEntity
  8
0
  6
Continuous
 62
     0
370
    30
100
AcDbLine
 10
-140.569046
 20
661.835747
 30
0.0
 11
-136.168648
 21
661.835747
 31
0.0
  0
LINE
  5
347
330
2DE
100
AcDbEntity
  8
0
  6
Continuous
 62
     0
370
    30
100
AcDbLine
 10
-127.969046
 20
661.835747
 30
0.0
 11
-91.069046
 21
661.835747
 31
0.0
  0
LINE
  5
348
330
2DE
100
AcDbEntity
  8
0
  6
Continuous
 62
     0
370
    30
100
AcDbLine
 10
-141.069046
 20
661.335747
 30
0.0
 11
-140.569046
 21
661.835747
 31
0.0
  0
LINE
  5
349
330
2DE
100
AcDbEntity
  8
0
  6
Continuous
 62
     0
370
     0
100
AcDbLine
 10
-127.611771
 20
859.832563
 30
0.0
 11
-127.611771
 21
869.300032
 31
0.0
  0
LWPOLYLINE
  5
34A
330
2DE
100
AcDbEntity
  8
0
  6
Continuous
 62
     0
370
     0
100
AcDbPolyline
 90
       19
 70
     0
 43
0.0
 10
-127.611771
 20
850.37146
 10
-127.611771
 20
850.401184
 10
-127.611771
 20
850.494385
 10
-127.611771
 20
850.655518
 10
-127.611771
 20
850.888
 10
-127.611771
 20
851.193787
 10
-127.611771
 20
851.573181
 10
-127.611771
 20
852.024719
 10
-127.611771
 20
852.544983
 10
-127.611771
 20
853.128662
 10
-127.611771
 20
853.768921
 10
-127.611771
 20
854.457214
 10
-127.611771
 20
855.184265
 10
-127.611771
 20
855.939941
 10
-127.611771
 20
856.713928
 10
-127.611771
 20
857.496216
 10
-127.611771
 20
858.277222
 10
-127.611771
 20
859.048401
 10
-127.611771
 20
859.832581
  0
LINE
  5
34B
330
2DE
100
AcDbEntity
  8
0
  6
Continuous
 62
     0
370
     0
100
AcDbLine
 10
-132.749045
 20
853.21112
 30
0.0
 11
-132.749045
 21
847.019008
 31
0.0
  0
LWPOLYLINE
  5
34C
330
2DE
100
AcDbEntity
  8
0
  6
Continuous
 62
     0
370
    30
100
AcDbPolyline
 90
        5
 70
     0
 43
0.0
 10
-132.749039
 20
847.018982
 10
-132.538315
 20
846.947754
 10
-132.38356
 20
846.898499
 10
-132.287125
 20
846.869202
 10
-132.249313
 20
846.858521
  0
LWPOLYLINE
  5
34D
330
2DE
100
AcDbEntity
  8
0
  6
Continuous
 62
     0
370
    30
100
AcDbPolyline
 90
        5
 70
     0
 43
0.0
 10
-132.249313
 20
872.812988
 10
-132.280319
 20
872.803894
 10
-132.37056
 20
872.776306
 10
-132.519135
 20
872.728882
 10
-132.749039
 20
872.651001
  0
LINE
  5
34E
330
2DE
100
AcDbEntity
  8
0
  6
Continuous
 62
     0
370
     0
100
AcDbLine
 10
-132.749045
 20
872.651019
 30
0.0
 11
-132.749045
 21
866.439832
 31
0.0
  0
LINE
  5
34F
330
2DE
100
AcDbEntity
  8
0
  6
Continuous
 62
     0
370
     0
100
AcDbLine
 10
-122.909347
 20
859.833644
 30
0.0
 11
-122.909346
 21
866.08585
 31
0.0
  0
LWPOLYLINE
  5
350
330
2DE
100
AcDbEntity
  8
0
  6
Continuous
 62
     0
370
     0
100
AcDbPolyline
 90
       16
 70
     0
 43
0.0
 10
-122.909348
 20
853.585632
 10
-122.909348
 20
853.614014
 10
-122.909348
 20
853.703308
 10
-122.909348
 20
853.858215
 10
-122.909348
 20
854.081909
 10
-122.909348
 20
854.375366
 10
-122.909348
 20
854.736938
 10
-122.909348
 20
855.162781
 10
-122.909348
 20
855.646301
 10
-122.909348
 20
856.178772
 10
-122.909348
 20
856.75
 10
-122.909348
 20
857.348511
 10
-122.909348
 20
857.962769
 10
-122.909348
 20
858.581543
 10
-122.909348
 20
859.194458
 10
-122.909348
 20
859.833618
  0
ARC
  5
351
330
2DE
100
AcDbEntity
  8
0
  6
Continuous
 62
     0
370
     0
100
AcDbCircle
 10
-137.249048
 20
859.824371
 30
0.0
 40
6.285714285688858
100
AcDbArc
 50
0.000003
 51
179.999997
  0
ARC
  5
352
330
2DE
100
AcDbEntity
  8
0
  6
Continuous
 62
     0
370
     0
100
AcDbCircle
 10
-137.249048
 20
859.824372
 30
0.0
 40
6.285714285688858
100
AcDbArc
 50
180.000003
 51
359.999997
  0
ELLIPSE
  5
353
330
2DE
100
AcDbEntity
  8
0
  6
Continuous
 62
     0
370
     0
100
AcDbEllipse
 10
-137.249047
 20
881.710085
 30
0.0
 11
4.999999999980004
 21
7.351698838451571E-11
 31
0.0
210
0.0
220
0.0
230
-1.0
 40
0.000336
 41
0.0000005437145194
 42
3.141592697301184
  0
LINE
  5
354
330
2DE
100
AcDbEntity
  8
0
  6
Continuous
 62
     0
370
    30
100
AcDbLine
 10
-142.249047
 20
881.710085
 30
0.0
 11
-142.249047
 21
872.835746
 31
0.0
  0
LWPOLYLINE
  5
355
330
2DE
100
AcDbEntity
  8
0
  6
Continuous
 62
     0
370
    30
100
AcDbPolyline
 90
       23
 70
     0
 43
0.0
 10
-142.243561
 20
872.833557
 10
-142.178619
 20
872.808594
 10
-142.040451
 20
872.756287
 10
-141.832382
 20
872.680542
 10
-141.559067
 20
872.585754
 10
-141.225555
 20
872.47699
 10
-140.837189
 20
872.360046
 10
-140.399216
 20
872.240723
 10
-139.916229
 20
872.127014
 10
-139.393372
 20
872.025574
 10
-138.837616
 20
871.938477
 10
-138.25621
 20
871.874207
 10
-137.657364
 20
871.840881
 10
-137.051407
 20
871.837158
 10
-136.448944
 20
871.861267
 10
-135.860336
 20
871.913757
 10
-135.294617
 20
871.992249
 10
-134.759048
 20
872.09021
 10
-134.260071
 20
872.201355
 10
-133.803772
 20
872.319397
 10
-133.396179
 20
872.438171
 10
-133.043442
 20
872.55072
 10
-132.749039
 20
872.651001
  0
ARC
  5
356
330
2DE
100
AcDbEntity
  8
0
  6
Continuous
 62
     0
370
    30
100
AcDbCircle
 10
-152.249046
 20
881.710085
 30
0.0
 40
9.999999074950633
100
AcDbArc
 50
0.0
 51
38.213213
  0
ARC
  5
357
330
2DE
100
AcDbEntity
  8
0
  6
Continuous
 62
     0
370
     0
100
AcDbCircle
 10
-137.249047
 20
11505.312147
 30
0.0
 40
10617.41856871382
100
AcDbArc
 50
269.961454
 51
270.038546
  0
ARC
  5
358
330
2DE
100
AcDbEntity
  8
0
  6
Continuous
 62
     0
370
    30
100
AcDbCircle
 10
-141.249047
 20
890.370339
 30
0.0
 40
3.999999630059259
100
AcDbArc
 50
124.849902
 51
218.213212
  0
ARC
  5
359
330
2DE
100
AcDbEntity
  8
0
  6
Continuous
 62
     0
370
     0
100
AcDbCircle
 10
-137.249047
 20
10236.979172
 30
0.0
 40
9343.328340537719
100
AcDbArc
 50
269.961454
 51
270.038546
  0
ARC
  5
35A
330
2DE
100
AcDbEntity
  8
0
  6
Continuous
 62
     0
370
    30
100
AcDbCircle
 10
-137.249047
 20
884.625775
 30
0.0
 40
11.00000043129024
100
AcDbArc
 50
90.0
 51
124.849903
  0
ELLIPSE
  5
35B
330
2DE
100
AcDbEntity
  8
0
  6
Continuous
 62
     0
370
     0
100
AcDbEllipse
 10
-137.249047
 20
837.961408
 30
0.0
 11
-4.999999999980004
 21
-7.351698838451571E-11
 31
0.0
210
0.0
220
0.0
230
1.0
 40
0.000336
 41
-0.000000043711391
 42
3.141593109881531
  0
LINE
  5
35C
330
2DE
100
AcDbEntity
  8
0
  6
Continuous
 62
     0
370
    30
100
AcDbLine
 10
-142.249047
 20
837.961408
 30
0.0
 11
-142.249047
 21
846.835748
 31
0.0
  0
LWPOLYLINE
  5
35D
330
2DE
100
AcDbEntity
  8
0
  6
Continuous
 62
     0
370
    30
100
AcDbPolyline
 90
       24
 70
     0
 43
0.0
 10
-132.749039
 20
847.018982
 10
-133.032227
 20
847.115173
 10
-133.373016
 20
847.223999
 10
-133.765137
 20
847.338928
 10
-134.202026
 20
847.453247
 10
-134.680023
 20
847.562012
 10
-135.194656
 20
847.65979
 10
-135.739716
 20
847.73999
 10
-136.308044
 20
847.797058
 10
-136.891586
 20
847.827332
 10
-137.481018
 20
847.830994
 10
-138.066757
 20
847.807739
 10
-138.639023
 20
847.755615
 10
-139.189301
 20
847.677551
 10
-139.711014
 20
847.583435
 10
-140.197678
 20
847.477966
 10
-140.643478
 20
847.363647
 10
-141.044357
 20
847.248108
 10
-141.395828
 20
847.137878
 10
-141.692963
 20
847.038208
 10
-141.930847
 20
846.954285
 10
-142.105194
 20
846.89032
 10
-142.212082
 20
846.84967
 10
-142.249054
 20
846.835754
  0
ARC
  5
35E
330
2DE
100
AcDbEntity
  8
0
  6
Continuous
 62
     0
370
    30
100
AcDbCircle
 10
-152.249046
 20
837.961408
 30
0.0
 40
9.99999907468446
100
AcDbArc
 50
321.786787
 51
360.0
  0
ARC
  5
35F
330
2DE
100
AcDbEntity
  8
0
  6
Continuous
 62
     0
370
     0
100
AcDbCircle
 10
-137.249047
 20
11449.191679
 30
0.0
 40
10617.41856896508
100
AcDbArc
 50
269.961454
 51
270.038546
  0
ARC
  5
360
330
2DE
100
AcDbEntity
  8
0
  6
Continuous
 62
     0
370
    30
100
AcDbCircle
 10
-141.249047
 20
829.301155
 30
0.0
 40
3.999999630100134
100
AcDbArc
 50
141.786788
 51
235.150098
  0
ARC
  5
361
330
2DE
100
AcDbEntity
  8
0
  6
Continuous
 62
     0
370
     0
100
AcDbCircle
 10
-137.249047
 20
10169.344774
 30
0.0
 40
9343.3283406619
100
AcDbArc
 50
269.961454
 51
270.038546
  0
ARC
  5
362
330
2DE
100
AcDbEntity
  8
0
  6
Continuous
 62
     0
370
    30
100
AcDbCircle
 10
-137.249047
 20
835.045718
 30
0.0
 40
11.0000000466354
100
AcDbArc
 50
235.150097
 51
237.422821
  0
LWPOLYLINE
  5
363
330
2DE
100
AcDbEntity
  8
0
  6
Continuous
 62
     0
370
     0
100
AcDbPolyline
 90
       42
 70
     0
 43
0.0
 10
-149.249039
 20
846.837952
 10
-149.249039
 20
846.853027
 10
-149.249039
 20
846.934631
 10
-149.249039
 20
847.087219
 10
-149.249039
 20
847.314453
 10
-149.249039
 20
847.618896
 10
-149.249039
 20
848.001892
 10
-149.249039
 20
848.463379
 10
-149.249039
 20
849.001709
 10
-149.249039
 20
849.613708
 10
-149.249039
 20
850.294617
 10
-149.249039
 20
851.038269
 10
-149.249039
 20
851.837341
 10
-149.249039
 20
852.683411
 10
-149.249039
 20
853.567261
 10
-149.249039
 20
854.479492
 10
-149.249039
 20
855.410522
 10
-149.249039
 20
856.35083
 10
-149.249039
 20
857.291687
 10
-149.249039
 20
858.224731
 10
-149.249039
 20
859.142639
 10
-149.249039
 20
860.045288
 10
-149.249039
 20
860.965393
 10
-149.249039
 20
861.903259
 10
-149.249039
 20
862.851624
 10
-149.249039
 20
863.802368
 10
-149.249039
 20
864.746704
 10
-149.249039
 20
865.675232
 10
-149.249039
 20
866.578308
 10
-149.249039
 20
867.44635
 10
-149.249039
 20
868.270081
 10
-149.249039
 20
869.040894
 10
-149.249039
 20
869.751099
 10
-149.249039
 20
870.394287
 10
-149.249039
 20
870.965332
 10
-149.249039
 20
871.460754
 10
-149.249039
 20
871.878479
 10
-149.249039
 20
872.21814
 10
-149.249039
 20
872.480652
 10
-149.249039
 20
872.668335
 10
-149.249039
 20
872.784485
 10
-149.249039
 20
872.833557
  0
LINE
  5
364
330
2DE
100
AcDbEntity
  8
0
  6
Continuous
 62
     0
370
    30
100
AcDbLine
 10
-154.249045
 20
867.834405
 30
0.0
 11
-154.249045
 21
851.837088
 31
0.0
  0
LINE
  5
365
330
2DE
100
AcDbEntity
  8
0
  6
Continuous
 62
     0
370
    30
100
AcDbLine
 10
-149.249045
 20
846.835747
 30
0.0
 11
-142.249018
 21
846.835747
 31
0.0
  0
LINE
  5
366
330
2DE
100
AcDbEntity
  8
0
  6
Continuous
 62
     0
370
    30
100
AcDbLine
 10
-149.249045
 20
872.835747
 30
0.0
 11
-142.249018
 21
872.835747
 31
0.0
  0
ARC
  5
367
330
2DE
100
AcDbEntity
  8
0
  6
Continuous
 62
     0
370
    30
100
AcDbCircle
 10
-149.249038
 20
867.835743
 30
0.0
 40
5.000006581816576
100
AcDbArc
 50
90.000075
 51
179.999925
  0
ARC
  5
368
330
2DE
100
AcDbEntity
  8
0
  6
Continuous
 62
     0
370
    30
100
AcDbCircle
 10
-149.249038
 20
851.83575
 30
0.0
 40
5.0000065818175
100
AcDbArc
 50
180.000075
 51
269.999925
  0
ARC
  5
369
330
2DE
100
AcDbEntity
  8
0
  6
Continuous
 62
     0
370
    30
100
AcDbCircle
 10
-137.249046
 20
835.045694
 30
0.0
 40
10.99998090618023
100
AcDbArc
 50
237.422751
 51
304.849966
  0
ARC
  5
36A
330
2DE
100
AcDbEntity
  8
0
  6
Continuous
 62
     0
370
    30
100
AcDbCircle
 10
-133.249062
 20
829.301157
 30
0.0
 40
4.000010773477866
100
AcDbArc
 50
304.850051
 51
38.213059
  0
ARC
  5
36B
330
2DE
100
AcDbEntity
  8
0
  6
Continuous
 62
     0
370
    30
100
AcDbCircle
 10
-122.248962
 20
837.961438
 30
0.0
 40
10.00008449769786
100
AcDbArc
 50
180.000172
 51
218.213041
  0
LINE
  5
36C
330
2DE
100
AcDbEntity
  8
0
  6
Continuous
 62
     0
370
    30
100
AcDbLine
 10
-132.249047
 20
846.858495
 30
0.0
 11
-132.249047
 21
837.961408
 31
0.0
  0
ARC
  5
36D
330
2DE
100
AcDbEntity
  8
0
  6
Continuous
 62
     0
370
    30
100
AcDbCircle
 10
-137.249354
 20
884.624827
 30
0.0
 40
11.00095513777247
100
AcDbArc
 50
55.151612
 51
89.998398
  0
ARC
  5
36E
330
2DE
100
AcDbEntity
  8
0
  6
Continuous
 62
     0
370
    30
100
AcDbCircle
 10
-133.249062
 20
890.370337
 30
0.0
 40
4.000010773470722
100
AcDbArc
 50
321.786941
 51
55.149949
  0
ARC
  5
36F
330
2DE
100
AcDbEntity
  8
0
  6
Continuous
 62
     0
370
    30
100
AcDbCircle
 10
-122.248962
 20
881.710055
 30
0.0
 40
10.00008449770213
100
AcDbArc
 50
141.786959
 51
179.999828
  0
LINE
  5
370
330
2DE
100
AcDbEntity
  8
0
  6
Continuous
 62
     0
370
    30
100
AcDbLine
 10
-132.249047
 20
872.812999
 30
0.0
 11
-132.249047
 21
881.710085
 31
0.0
  0
CIRCLE
  5
371
330
2DE
100
AcDbEntity
  8
0
  6
Continuous
 62
     0
370
    30
100
AcDbCircle
 10
-137.249048
 20
859.825476
 30
0.0
 40
7.999999890432295
  0
LINE
  5
372
330
2DE
100
AcDbEntity
  8
0
  6
Continuous
 62
     0
370
    30
100
AcDbLine
 10
-122.909346
 20
853.585643
 30
0.0
 11
-119.249045
 21
853.573866
 31
0.0
  0
LINE
  5
373
330
2DE
100
AcDbEntity
  8
0
  6
Continuous
 62
     0
370
    30
100
AcDbLine
 10
-122.909346
 20
866.08585
 30
0.0
 11
-119.249045
 21
866.097628
 31
0.0
  0
ARC
  5
374
330
2DE
100
AcDbEntity
  8
0
  6
Continuous
 62
     0
370
    30
100
AcDbCircle
 10
-122.941368
 20
848.58552
 30
0.0
 40
5.000225295552633
100
AcDbArc
 50
89.633078
 51
159.073379
  0
ARC
  5
375
330
2DE
100
AcDbEntity
  8
0
  6
Continuous
 62
     0
370
    30
100
AcDbCircle
 10
-122.941368
 20
871.085973
 30
0.0
 40
5.000225295553221
100
AcDbArc
 50
200.926621
 51
270.366922
  0
LWPOLYLINE
  5
376
330
2DE
100
AcDbEntity
  8
0
  6
Continuous
 62
     0
370
    30
100
AcDbPolyline
 90
       11
 70
     0
 43
0.0
 10
-127.611771
 20
869.300049
 10
-127.861794
 20
869.858582
 10
-128.172363
 20
870.385986
 10
-128.539566
 20
870.875549
 10
-128.958893
 20
871.321289
 10
-129.425156
 20
871.717712
 10
-129.932602
 20
872.059814
 10
-130.474869
 20
872.343567
 10
-131.045303
 20
872.565186
 10
-131.636826
 20
872.722534
 10
-132.249481
 20
872.812988
  0
LWPOLYLINE
  5
377
330
2DE
100
AcDbEntity
  8
0
  6
Continuous
 62
     0
370
    30
100
AcDbPolyline
 90
       11
 70
     0
 43
0.0
 10
-127.611771
 20
850.37146
 10
-127.861794
 20
849.812927
 10
-128.172363
 20
849.285522
 10
-128.539566
 20
848.795959
 10
-128.958893
 20
848.350159
 10
-129.425156
 20
847.953735
 10
-129.932602
 20
847.611633
 10
-130.474869
 20
847.327942
 10
-131.045303
 20
847.106262
 10
-131.636826
 20
846.948975
 10
-132.249481
 20
846.858459
  0
LINE
  5
378
330
2DE
100
AcDbEntity
  8
0
  6
Continuous
 62
     0
370
    30
100
AcDbLine
 10
-119.249045
 20
859.835747
 30
0.0
 11
-119.249045
 21
844.51412
 31
0.0
  0
LINE
  5
379
330
2DE
100
AcDbEntity
  8
0
  6
Continuous
 62
     0
370
    30
100
AcDbLine
 10
-119.249045
 20
875.157373
 30
0.0
 11
-119.249045
 21
859.835747
 31
0.0
  0
LINE
  5
37A
330
2DE
100
AcDbEntity
  8
0
  6
Continuous
 62
     0
370
     0
100
AcDbLine
 10
-112.610054
 20
859.835747
 30
0.0
 11
-112.610053
 21
883.040752
 31
0.0
  0
LINE
  5
37B
330
2DE
100
AcDbEntity
  8
0
  6
Continuous
 62
     0
370
     0
100
AcDbLine
 10
-112.610053
 20
836.630742
 30
0.0
 11
-112.610054
 21
859.835747
 31
0.0
  0
LINE
  5
37C
330
2DE
100
AcDbEntity
  8
0
  6
Continuous
 62
     0
370
     0
100
AcDbLine
 10
-88.730949
 20
859.835747
 30
0.0
 11
-88.730948
 21
887.163307
 31
0.0
  0
LINE
  5
37D
330
2DE
100
AcDbEntity
  8
0
  6
Continuous
 62
     0
370
     0
100
AcDbLine
 10
-88.730948
 20
832.508187
 30
0.0
 11
-88.730949
 21
859.835747
 31
0.0
  0
LINE
  5
37E
330
2DE
100
AcDbEntity
  8
0
  6
Continuous
 62
     0
370
     0
100
AcDbLine
 10
-83.730687
 20
859.835747
 30
0.0
 11
-83.730686
 21
889.840107
 31
0.0
  0
LINE
  5
37F
330
2DE
100
AcDbEntity
  8
0
  6
Continuous
 62
     0
370
     0
100
AcDbLine
 10
-83.730686
 20
829.831386
 30
0.0
 11
-83.730687
 21
859.835747
 31
0.0
  0
LINE
  5
380
330
2DE
100
AcDbEntity
  8
0
  6
Continuous
 62
     0
370
    30
100
AcDbLine
 10
-77.849046
 20
859.835747
 30
0.0
 11
-77.849045
 21
892.335747
 31
0.0
  0
LINE
  5
381
330
2DE
100
AcDbEntity
  8
0
  6
Continuous
 62
     0
370
    30
100
AcDbLine
 10
-77.849045
 20
827.335747
 30
0.0
 11
-77.849046
 21
859.835747
 31
0.0
  0
ARC
  5
382
330
2DE
100
AcDbEntity
  8
0
  6
Continuous
 62
     0
370
    30
100
AcDbCircle
 10
-77.924956
 20
835.335491
 30
0.0
 40
8.00010467575918
100
AcDbArc
 50
223.472326
 51
270.543676
  0
ARC
  5
383
330
2DE
100
AcDbEntity
  8
0
  6
Continuous
 62
     0
370
    30
100
AcDbCircle
 10
-77.924956
 20
884.336002
 30
0.0
 40
8.00010467575559
100
AcDbArc
 50
89.456324
 51
136.527674
  0
ARC
  5
384
330
2DE
100
AcDbEntity
  8
0
  6
Continuous
 62
     0
370
    30
100
AcDbCircle
 10
-90.262118
 20
896.032174
 30
0.0
 40
9.000072052859036
100
AcDbArc
 50
279.795299
 51
316.527848
  0
ARC
  5
385
330
2DE
100
AcDbEntity
  8
0
  6
Continuous
 62
     0
370
    30
100
AcDbCircle
 10
-90.262118
 20
823.639319
 30
0.0
 40
9.000072052861952
100
AcDbArc
 50
43.472152
 51
80.204701
  0
LINE
  5
386
330
2DE
100
AcDbEntity
  8
0
  6
Continuous
 62
     0
370
    30
100
AcDbLine
 10
-112.610053
 20
836.630742
 30
0.0
 11
-88.730948
 21
832.508187
 31
0.0
  0
LINE
  5
387
330
2DE
100
AcDbEntity
  8
0
  6
Continuous
 62
     0
370
    30
100
AcDbLine
 10
-112.610053
 20
883.040752
 30
0.0
 11
-88.730948
 21
887.163307
 31
0.0
  0
ARC
  5
388
330
2DE
100
AcDbEntity
  8
0
  6
Continuous
 62
     0
370
    30
100
AcDbCircle
 10
-111.249043
 20
844.514121
 30
0.0
 40
8.000001724298805
100
AcDbArc
 50
180.007392
 51
260.204843
  0
ARC
  5
389
330
2DE
100
AcDbEntity
  8
0
  6
Continuous
 62
     0
370
    30
100
AcDbCircle
 10
-111.249043
 20
875.157372
 30
0.0
 40
8.000001724297704
100
AcDbArc
 50
99.795157
 51
179.992608
  0
LINE
  5
38A
330
2DE
100
AcDbEntity
  8
0
  6
Continuous
 62
     0
370
     0
100
AcDbLine
 10
-127.611771
 20
959.832563
 30
0.0
 11
-127.611771
 21
969.300032
 31
0.0
  0
LWPOLYLINE
  5
38B
330
2DE
100
AcDbEntity
  8
0
  6
Continuous
 62
     0
370
     0
100
AcDbPolyline
 90
       19
 70
     0
 43
0.0
 10
-127.611771
 20
950.37146
 10
-127.611771
 20
950.401184
 10
-127.611771
 20
950.494385
 10
-127.611771
 20
950.655518
 10
-127.611771
 20
950.888
 10
-127.611771
 20
951.193787
 10
-127.611771
 20
951.573181
 10
-127.611771
 20
952.024719
 10
-127.611771
 20
952.544983
 10
-127.611771
 20
953.128662
 10
-127.611771
 20
953.768921
 10
-127.611771
 20
954.457214
 10
-127.611771
 20
955.184265
 10
-127.611771
 20
955.939941
 10
-127.611771
 20
956.713928
 10
-127.611771
 20
957.496216
 10
-127.611771
 20
958.277222
 10
-127.611771
 20
959.048401
 10
-127.611771
 20
959.832581
  0
LINE
  5
38C
330
2DE
100
AcDbEntity
  8
0
  6
Continuous
 62
     0
370
     0
100
AcDbLine
 10
-132.749045
 20
953.21112
 30
0.0
 11
-132.749045
 21
947.019008
 31
0.0
  0
LWPOLYLINE
  5
38D
330
2DE
100
AcDbEntity
  8
0
  6
Continuous
 62
     0
370
    30
100
AcDbPolyline
 90
        5
 70
     0
 43
0.0
 10
-132.749039
 20
947.018982
 10
-132.538315
 20
946.947754
 10
-132.38356
 20
946.898499
 10
-132.287125
 20
946.869202
 10
-132.249313
 20
946.858521
  0
LWPOLYLINE
  5
38E
330
2DE
100
AcDbEntity
  8
0
  6
Continuous
 62
     0
370
    30
100
AcDbPolyline
 90
        5
 70
     0
 43
0.0
 10
-132.249313
 20
972.812988
 10
-132.280319
 20
972.803894
 10
-132.37056
 20
972.776306
 10
-132.519135
 20
972.728882
 10
-132.749039
 20
972.651001
  0
LINE
  5
38F
330
2DE
100
AcDbEntity
  8
0
  6
Continuous
 62
     0
370
     0
100
AcDbLine
 10
-132.749045
 20
972.651019
 30
0.0
 11
-132.749045
 21
966.439832
 31
0.0
  0
LINE
  5
390
330
2DE
100
AcDbEntity
  8
0
  6
Continuous
 62
     0
370
     0
100
AcDbLine
 10
-122.909347
 20
959.833644
 30
0.0
 11
-122.909346
 21
966.08585
 31
0.0
  0
LWPOLYLINE
  5
391
330
2DE
100
AcDbEntity
  8
0
  6
Continuous
 62
     0
370
     0
100
AcDbPolyline
 90
       16
 70
     0
 43
0.0
 10
-122.909348
 20
953.585632
 10
-122.909348
 20
953.614014
 10
-122.909348
 20
953.703308
 10
-122.909348
 20
953.858215
 10
-122.909348
 20
954.081909
 10
-122.909348
 20
954.375366
 10
-122.909348
 20
954.736938
 10
-122.909348
 20
955.162781
 10
-122.909348
 20
955.646301
 10
-122.909348
 20
956.178772
 10
-122.909348
 20
956.75
 10
-122.909348
 20
957.348511
 10
-122.909348
 20
957.962769
 10
-122.909348
 20
958.581543
 10
-122.909348
 20
959.194458
 10
-122.909348
 20
959.833618
  0
ARC
  5
392
330
2DE
100
AcDbEntity
  8
0
  6
Continuous
 62
     0
370
     0
100
AcDbCircle
 10
-137.249048
 20
959.824371
 30
0.0
 40
6.285714285688858
100
AcDbArc
 50
0.000003
 51
179.999997
  0
ARC
  5
393
330
2DE
100
AcDbEntity
  8
0
  6
Continuous
 62
     0
370
     0
100
AcDbCircle
 10
-137.249048
 20
959.824372
 30
0.0
 40
6.285714285688858
100
AcDbArc
 50
180.000003
 51
359.999997
  0
ELLIPSE
  5
394
330
2DE
100
AcDbEntity
  8
0
  6
Continuous
 62
     0
370
     0
100
AcDbEllipse
 10
-137.249047
 20
981.710085
 30
0.0
 11
4.999999999980004
 21
7.351698838451571E-11
 31
0.0
210
0.0
220
0.0
230
-1.0
 40
0.000336
 41
0.0000005437145194
 42
3.141592697301184
  0
LINE
  5
395
330
2DE
100
AcDbEntity
  8
0
  6
Continuous
 62
     0
370
    30
100
AcDbLine
 10
-142.249047
 20
981.710085
 30
0.0
 11
-142.249047
 21
972.835746
 31
0.0
  0
LWPOLYLINE
  5
396
330
2DE
100
AcDbEntity
  8
0
  6
Continuous
 62
     0
370
    30
100
AcDbPolyline
 90
       23
 70
     0
 43
0.0
 10
-142.243561
 20
972.833557
 10
-142.178619
 20
972.808594
 10
-142.040451
 20
972.756287
 10
-141.832382
 20
972.680542
 10
-141.559067
 20
972.585754
 10
-141.225555
 20
972.47699
 10
-140.837189
 20
972.360046
 10
-140.399216
 20
972.240723
 10
-139.916229
 20
972.127014
 10
-139.393372
 20
972.025574
 10
-138.837616
 20
971.938477
 10
-138.25621
 20
971.874207
 10
-137.657364
 20
971.840881
 10
-137.051407
 20
971.837158
 10
-136.448944
 20
971.861267
 10
-135.860336
 20
971.913757
 10
-135.294617
 20
971.992249
 10
-134.759048
 20
972.09021
 10
-134.260071
 20
972.201355
 10
-133.803772
 20
972.319397
 10
-133.396179
 20
972.438171
 10
-133.043442
 20
972.55072
 10
-132.749039
 20
972.651001
  0
ARC
  5
397
330
2DE
100
AcDbEntity
  8
0
  6
Continuous
 62
     0
370
    30
100
AcDbCircle
 10
-152.249046
 20
981.710085
 30
0.0
 40
9.999999074953676
100
AcDbArc
 50
0.0
 51
38.213213
  0
ARC
  5
398
330
2DE
100
AcDbEntity
  8
0
  6
Continuous
 62
     0
370
     0
100
AcDbCircle
 10
-137.249047
 20
11605.312148
 30
0.0
 40
10617.41856984608
100
AcDbArc
 50
269.961454
 51
270.038546
  0
ARC
  5
399
330
2DE
100
AcDbEntity
  8
0
  6
Continuous
 62
     0
370
    30
100
AcDbCircle
 10
-141.249047
 20
990.370339
 30
0.0
 40
3.999999630059806
100
AcDbArc
 50
124.849902
 51
218.213212
  0
ARC
  5
39A
330
2DE
100
AcDbEntity
  8
0
  6
Continuous
 62
     0
370
     0
100
AcDbCircle
 10
-137.249047
 20
10336.979172
 30
0.0
 40
9343.328340539601
100
AcDbArc
 50
269.961454
 51
270.038546
  0
ARC
  5
39B
330
2DE
100
AcDbEntity
  8
0
  6
Continuous
 62
     0
370
    30
100
AcDbCircle
 10
-137.249047
 20
984.625775
 30
0.0
 40
11.00000043129078
100
AcDbArc
 50
90.0
 51
124.849903
  0
ELLIPSE
  5
39C
330
2DE
100
AcDbEntity
  8
0
  6
Continuous
 62
     0
370
     0
100
AcDbEllipse
 10
-137.249047
 20
937.961408
 30
0.0
 11
-4.999999999980004
 21
-7.351698838451571E-11
 31
0.0
210
0.0
220
0.0
230
1.0
 40
0.000336
 41
-0.000000043711391
 42
3.141593109881531
  0
LINE
  5
39D
330
2DE
100
AcDbEntity
  8
0
  6
Continuous
 62
     0
370
    30
100
AcDbLine
 10
-142.249047
 20
937.961408
 30
0.0
 11
-142.249047
 21
946.835748
 31
0.0
  0
LWPOLYLINE
  5
39E
330
2DE
100
AcDbEntity
  8
0
  6
Continuous
 62
     0
370
    30
100
AcDbPolyline
 90
       24
 70
     0
 43
0.0
 10
-132.749039
 20
947.018982
 10
-133.032227
 20
947.115173
 10
-133.373016
 20
947.223999
 10
-133.765137
 20
947.338928
 10
-134.202026
 20
947.453247
 10
-134.680023
 20
947.562012
 10
-135.194656
 20
947.65979
 10
-135.739716
 20
947.73999
 10
-136.308044
 20
947.797058
 10
-136.891586
 20
947.827332
 10
-137.481018
 20
947.830994
 10
-138.066757
 20
947.807739
 10
-138.639023
 20
947.755615
 10
-139.189301
 20
947.677551
 10
-139.711014
 20
947.583435
 10
-140.197678
 20
947.477966
 10
-140.643478
 20
947.363647
 10
-141.044357
 20
947.248108
 10
-141.395828
 20
947.137878
 10
-141.692963
 20
947.038208
 10
-141.930847
 20
946.954285
 10
-142.105194
 20
946.89032
 10
-142.212082
 20
946.84967
 10
-142.249054
 20
946.835754
  0
ARC
  5
39F
330
2DE
100
AcDbEntity
  8
0
  6
Continuous
 62
     0
370
    30
100
AcDbCircle
 10
-152.249046
 20
937.961408
 30
0.0
 40
9.99999907467817
100
AcDbArc
 50
321.786787
 51
360.0
  0
ARC
  5
3A0
330
2DE
100
AcDbEntity
  8
0
  6
Continuous
 62
     0
370
     0
100
AcDbCircle
 10
-137.249047
 20
11549.191679
 30
0.0
 40
10617.41856859132
100
AcDbArc
 50
269.961454
 51
270.038546
  0
ARC
  5
3A1
330
2DE
100
AcDbEntity
  8
0
  6
Continuous
 62
     0
370
    30
100
AcDbCircle
 10
-141.249047
 20
929.301155
 30
0.0
 40
3.999999630098987
100
AcDbArc
 50
141.786788
 51
235.150098
  0
ARC
  5
3A2
330
2DE
100
AcDbEntity
  8
0
  6
Continuous
 62
     0
370
     0
100
AcDbCircle
 10
-137.249047
 20
10269.344774
 30
0.0
 40
9343.32834066432
100
AcDbArc
 50
269.961454
 51
270.038546
  0
ARC
  5
3A3
330
2DE
100
AcDbEntity
  8
0
  6
Continuous
 62
     0
370
    30
100
AcDbCircle
 10
-137.249047
 20
935.045718
 30
0.0
 40
11.00000004863913
100
AcDbArc
 50
235.150097
 51
237.422821
  0
LWPOLYLINE
  5
3A4
330
2DE
100
AcDbEntity
  8
0
  6
Continuous
 62
     0
370
     0
100
AcDbPolyline
 90
       42
 70
     0
 43
0.0
 10
-149.249039
 20
946.837952
 10
-149.249039
 20
946.853027
 10
-149.249039
 20
946.934631
 10
-149.249039
 20
947.087219
 10
-149.249039
 20
947.314453
 10
-149.249039
 20
947.618896
 10
-149.249039
 20
948.001892
 10
-149.249039
 20
948.463379
 10
-149.249039
 20
949.001709
 10
-149.249039
 20
949.613708
 10
-149.249039
 20
950.294617
 10
-149.249039
 20
951.038269
 10
-149.249039
 20
951.837341
 10
-149.249039
 20
952.683411
 10
-149.249039
 20
953.567261
 10
-149.249039
 20
954.479492
 10
-149.249039
 20
955.410522
 10
-149.249039
 20
956.35083
 10
-149.249039
 20
957.291687
 10
-149.249039
 20
958.224731
 10
-149.249039
 20
959.142639
 10
-149.249039
 20
960.045288
 10
-149.249039
 20
960.965393
 10
-149.249039
 20
961.903259
 10
-149.249039
 20
962.851624
 10
-149.249039
 20
963.802368
 10
-149.249039
 20
964.746704
 10
-149.249039
 20
965.675232
 10
-149.249039
 20
966.578308
 10
-149.249039
 20
967.44635
 10
-149.249039
 20
968.270081
 10
-149.249039
 20
969.040894
 10
-149.249039
 20
969.751099
 10
-149.249039
 20
970.394287
 10
-149.249039
 20
970.965332
 10
-149.249039
 20
971.460754
 10
-149.249039
 20
971.878479
 10
-149.249039
 20
972.21814
 10
-149.249039
 20
972.480652
 10
-149.249039
 20
972.668335
 10
-149.249039
 20
972.784485
 10
-149.249039
 20
972.833557
  0
LINE
  5
3A5
330
2DE
100
AcDbEntity
  8
0
  6
Continuous
 62
     0
370
    30
100
AcDbLine
 10
-154.249045
 20
967.834405
 30
0.0
 11
-154.249045
 21
951.837088
 31
0.0
  0
LINE
  5
3A6
330
2DE
100
AcDbEntity
  8
0
  6
Continuous
 62
     0
370
    30
100
AcDbLine
 10
-149.249045
 20
946.835747
 30
0.0
 11
-142.249018
 21
946.835747
 31
0.0
  0
LINE
  5
3A7
330
2DE
100
AcDbEntity
  8
0
  6
Continuous
 62
     0
370
    30
100
AcDbLine
 10
-149.249045
 20
972.835747
 30
0.0
 11
-142.249018
 21
972.835747
 31
0.0
  0
ARC
  5
3A8
330
2DE
100
AcDbEntity
  8
0
  6
Continuous
 62
     0
370
    30
100
AcDbCircle
 10
-149.249038
 20
967.835743
 30
0.0
 40
5.000006581816974
100
AcDbArc
 50
90.000075
 51
179.999925
  0
ARC
  5
3A9
330
2DE
100
AcDbEntity
  8
0
  6
Continuous
 62
     0
370
    30
100
AcDbCircle
 10
-149.249038
 20
951.83575
 30
0.0
 40
5.000006581818644
100
AcDbArc
 50
180.000075
 51
269.999925
  0
ARC
  5
3AA
330
2DE
100
AcDbEntity
  8
0
  6
Continuous
 62
     0
370
    30
100
AcDbCircle
 10
-137.249046
 20
935.045694
 30
0.0
 40
10.99998090618236
100
AcDbArc
 50
237.422751
 51
304.849966
  0
ARC
  5
3AB
330
2DE
100
AcDbEntity
  8
0
  6
Continuous
 62
     0
370
    30
100
AcDbCircle
 10
-133.249062
 20
929.301157
 30
0.0
 40
4.000010773480069
100
AcDbArc
 50
304.850051
 51
38.213059
  0
ARC
  5
3AC
330
2DE
100
AcDbEntity
  8
0
  6
Continuous
 62
     0
370
    30
100
AcDbCircle
 10
-122.248962
 20
937.961438
 30
0.0
 40
10.00008449769943
100
AcDbArc
 50
180.000172
 51
218.213041
  0
LINE
  5
3AD
330
2DE
100
AcDbEntity
  8
0
  6
Continuous
 62
     0
370
    30
100
AcDbLine
 10
-132.249047
 20
946.858495
 30
0.0
 11
-132.249047
 21
937.961408
 31
0.0
  0
ARC
  5
3AE
330
2DE
100
AcDbEntity
  8
0
  6
Continuous
 62
     0
370
    30
100
AcDbCircle
 10
-137.249354
 20
984.624827
 30
0.0
 40
11.00095513777726
100
AcDbArc
 50
55.151612
 51
89.998398
  0
ARC
  5
3AF
330
2DE
100
AcDbEntity
  8
0
  6
Continuous
 62
     0
370
    30
100
AcDbCircle
 10
-133.249062
 20
990.370337
 30
0.0
 40
4.000010773477175
100
AcDbArc
 50
321.786941
 51
55.149949
  0
ARC
  5
3B0
330
2DE
100
AcDbEntity
  8
0
  6
Continuous
 62
     0
370
    30
100
AcDbCircle
 10
-122.248962
 20
981.710055
 30
0.0
 40
10.00008449769594
100
AcDbArc
 50
141.786959
 51
179.999828
  0
LINE
  5
3B1
330
2DE
100
AcDbEntity
  8
0
  6
Continuous
 62
     0
370
    30
100
AcDbLine
 10
-132.249047
 20
972.812999
 30
0.0
 11
-132.249047
 21
981.710085
 31
0.0
  0
CIRCLE
  5
3B2
330
2DE
100
AcDbEntity
  8
0
  6
Continuous
 62
     0
370
    30
100
AcDbCircle
 10
-137.249048
 20
959.825476
 30
0.0
 40
7.99999989043232
  0
LINE
  5
3B3
330
2DE
100
AcDbEntity
  8
0
  6
Continuous
 62
     0
370
    30
100
AcDbLine
 10
-122.909346
 20
953.585643
 30
0.0
 11
-119.249045
 21
953.573866
 31
0.0
  0
LINE
  5
3B4
330
2DE
100
AcDbEntity
  8
0
  6
Continuous
 62
     0
370
    30
100
AcDbLine
 10
-122.909346
 20
966.08585
 30
0.0
 11
-119.249045
 21
966.097628
 31
0.0
  0
ARC
  5
3B5
330
2DE
100
AcDbEntity
  8
0
  6
Continuous
 62
     0
370
    30
100
AcDbCircle
 10
-122.941368
 20
948.58552
 30
0.0
 40
5.000225295555831
100
AcDbArc
 50
89.633078
 51
159.073379
  0
ARC
  5
3B6
330
2DE
100
AcDbEntity
  8
0
  6
Continuous
 62
     0
370
    30
100
AcDbCircle
 10
-122.941368
 20
971.085973
 30
0.0
 40
5.000225295547901
100
AcDbArc
 50
200.926621
 51
270.366922
  0
LWPOLYLINE
  5
3B7
330
2DE
100
AcDbEntity
  8
0
  6
Continuous
 62
     0
370
    30
100
AcDbPolyline
 90
       11
 70
     0
 43
0.0
 10
-127.611771
 20
969.300049
 10
-127.861794
 20
969.858582
 10
-128.172363
 20
970.385986
 10
-128.539566
 20
970.875549
 10
-128.958893
 20
971.321289
 10
-129.425156
 20
971.717712
 10
-129.932602
 20
972.059814
 10
-130.474869
 20
972.343567
 10
-131.045303
 20
972.565186
 10
-131.636826
 20
972.722534
 10
-132.249481
 20
972.812988
  0
LWPOLYLINE
  5
3B8
330
2DE
100
AcDbEntity
  8
0
  6
Continuous
 62
     0
370
    30
100
AcDbPolyline
 90
       11
 70
     0
 43
0.0
 10
-127.611771
 20
950.37146
 10
-127.861794
 20
949.812927
 10
-128.172363
 20
949.285522
 10
-128.539566
 20
948.795959
 10
-128.958893
 20
948.350159
 10
-129.425156
 20
947.953735
 10
-129.932602
 20
947.611633
 10
-130.474869
 20
947.327942
 10
-131.045303
 20
947.106262
 10
-131.636826
 20
946.948975
 10
-132.249481
 20
946.858459
  0
LINE
  5
3B9
330
2DE
100
AcDbEntity
  8
0
  6
Continuous
 62
     0
370
    30
100
AcDbLine
 10
-119.249045
 20
959.835747
 30
0.0
 11
-119.249045
 21
944.51412
 31
0.0
  0
LINE
  5
3BA
330
2DE
100
AcDbEntity
  8
0
  6
Continuous
 62
     0
370
    30
100
AcDbLine
 10
-119.249045
 20
975.157373
 30
0.0
 11
-119.249045
 21
959.835747
 31
0.0
  0
LINE
  5
3BB
330
2DE
100
AcDbEntity
  8
0
  6
Continuous
 62
     0
370
     0
100
AcDbLine
 10
-112.610054
 20
959.835747
 30
0.0
 11
-112.610053
 21
983.040752
 31
0.0
  0
LINE
  5
3BC
330
2DE
100
AcDbEntity
  8
0
  6
Continuous
 62
     0
370
     0
100
AcDbLine
 10
-112.610053
 20
936.630742
 30
0.0
 11
-112.610054
 21
959.835747
 31
0.0
  0
LINE
  5
3BD
330
2DE
100
AcDbEntity
  8
0
  6
Continuous
 62
     0
370
     0
100
AcDbLine
 10
-88.730949
 20
959.835747
 30
0.0
 11
-88.730948
 21
987.163307
 31
0.0
  0
LINE
  5
3BE
330
2DE
100
AcDbEntity
  8
0
  6
Continuous
 62
     0
370
     0
100
AcDbLine
 10
-88.730948
 20
932.508187
 30
0.0
 11
-88.730949
 21
959.835747
 31
0.0
  0
LINE
  5
3BF
330
2DE
100
AcDbEntity
  8
0
  6
Continuous
 62
     0
370
     0
100
AcDbLine
 10
-83.730687
 20
959.835747
 30
0.0
 11
-83.730686
 21
989.840107
 31
0.0
  0
LINE
  5
3C0
330
2DE
100
AcDbEntity
  8
0
  6
Continuous
 62
     0
370
     0
100
AcDbLine
 10
-83.730686
 20
929.831386
 30
0.0
 11
-83.730687
 21
959.835747
 31
0.0
  0
LINE
  5
3C1
330
2DE
100
AcDbEntity
  8
0
  6
Continuous
 62
     0
370
    30
100
AcDbLine
 10
-77.849046
 20
959.835747
 30
0.0
 11
-77.849045
 21
992.335747
 31
0.0
  0
LINE
  5
3C2
330
2DE
100
AcDbEntity
  8
0
  6
Continuous
 62
     0
370
    30
100
AcDbLine
 10
-77.849045
 20
927.335747
 30
0.0
 11
-77.849046
 21
959.835747
 31
0.0
  0
ARC
  5
3C3
330
2DE
100
AcDbEntity
  8
0
  6
Continuous
 62
     0
370
    30
100
AcDbCircle
 10
-77.924956
 20
935.335491
 30
0.0
 40
8.000104675765876
100
AcDbArc
 50
223.472326
 51
270.543676
  0
ARC
  5
3C4
330
2DE
100
AcDbEntity
  8
0
  6
Continuous
 62
     0
370
    30
100
AcDbCircle
 10
-77.924956
 20
984.336002
 30
0.0
 40
8.000104675756969
100
AcDbArc
 50
89.456324
 51
136.527674
  0
ARC
  5
3C5
330
2DE
100
AcDbEntity
  8
0
  6
Continuous
 62
     0
370
    30
100
AcDbCircle
 10
-90.262118
 20
996.032174
 30
0.0
 40
9.000072052871332
100
AcDbArc
 50
279.795299
 51
316.527848
  0
ARC
  5
3C6
330
2DE
100
AcDbEntity
  8
0
  6
Continuous
 62
     0
370
    30
100
AcDbCircle
 10
-90.262118
 20
923.639319
 30
0.0
 40
9.000072052855524
100
AcDbArc
 50
43.472152
 51
80.204701
  0
LINE
  5
3C7
330
2DE
100
AcDbEntity
  8
0
  6
Continuous
 62
     0
370
    30
100
AcDbLine
 10
-112.610053
 20
936.630742
 30
0.0
 11
-88.730948
 21
932.508187
 31
0.0
  0
LINE
  5
3C8
330
2DE
100
AcDbEntity
  8
0
  6
Continuous
 62
     0
370
    30
100
AcDbLine
 10
-112.610053
 20
983.040752
 30
0.0
 11
-88.730948
 21
987.163307
 31
0.0
  0
ARC
  5
3C9
330
2DE
100
AcDbEntity
  8
0
  6
Continuous
 62
     0
370
    30
100
AcDbCircle
 10
-111.249043
 20
944.514121
 30
0.0
 40
8.000001724297114
100
AcDbArc
 50
180.007392
 51
260.204843
  0
ARC
  5
3CA
330
2DE
100
AcDbEntity
  8
0
  6
Continuous
 62
     0
370
    30
100
AcDbCircle
 10
-111.249043
 20
975.157372
 30
0.0
 40
8.000001724297041
100
AcDbArc
 50
99.795157
 51
179.992608
  0
ENDBLK
  5
3CC
330
2DE
100
AcDbEntity
  8
0
100
AcDbBlockEnd
  0
ENDSEC
  0
SECTION
  2
ENTITIES
  0
INSERT
  5
19F
330
1F
100
AcDbEntity
  8
0
  6
Continuous
 62
     7
420
 16250871
370
     0
100
AcDbBlockReference
  2
a
 10
14.975258
 20
96.550018
 30
0.0
  0
INSERT
  5
1ED
330
1F
100
AcDbEntity
  8
0
  6
Continuous
 62
     7
420
 16250871
370
     0
100
AcDbBlockReference
  2
b
 10
14.975258
 20
373.032196
 30
0.0
  0
INSERT
  5
2DD
330
1F
100
AcDbEntity
  8
0
  6
Continuous
 62
     7
420
 16250871
370
     0
100
AcDbBlockReference
  2
c
 10
66.031654
 20
96.550018
 30
0.0
  0
INSERT
  5
3CD
330
1F
100
AcDbEntity
  8
0
  6
Continuous
 62
     7
420
 16250871
370
     0
100
AcDbBlockReference
  2
d
 10
-43.300781
 20
0.0
 30
0.0
  0
ENDSEC
  0
SECTION
  2
OBJECTS
  0
DICTIONARY
  5
C
330
0
100
AcDbDictionary
281
     1
  3
ACAD_DETAILVIEWSTYLE
350
405
  3
ACAD_GROUP
350
D
  3
ACAD_LAYOUT
350
1A
  3
ACAD_MATERIAL
350
43
  3
ACAD_MLEADERSTYLE
350
6B
  3
ACAD_MLINESTYLE
350
17
  3
ACAD_PLOTSETTINGS
350
19
  3
ACAD_PLOTSTYLENAME
350
E
  3
ACAD_SCALELIST
350
47
  3
ACAD_SECTIONVIEWSTYLE
350
406
  3
ACAD_TABLESTYLE
350
69
  3
ACAD_VISUALSTYLE
350
2A
  3
ACDB_RECOMPOSE_DATA
350
402
  3
AcDbVariableDictionary
350
3CE
  0
SUN
  5
6D
330
29
100
AcDbSun
 90
        1
290
     0
 63
     7
421
 16777215
 40
1.0
291
     1
 91
  2455826
 92
 54000000
292
     0
 70
     2
 71
   256
280
     1
  0
DICTIONARY
  5
405
102
{ACAD_REACTORS
330
C
102
}
330
C
100
AcDbDictionary
281
     1
  0
DICTIONARY
  5
D
102
{ACAD_REACTORS
330
C
102
}
330
C
100
AcDbDictionary
281
     1
  0
DICTIONARY
  5
1A
102
{ACAD_REACTORS
330
C
102
}
330
C
100
AcDbDictionary
281
     1
  3
Layout1
350
1E
  3
Layout2
350
26
  3
Model
350
22
  0
DICTIONARY
  5
43
102
{ACAD_REACTORS
330
C
102
}
330
C
100
AcDbDictionary
281
     1
  3
ByBlock
350
45
  3
ByLayer
350
44
  3
Global
350
46
  0
DICTIONARY
  5
6B
102
{ACAD_REACTORS
330
C
102
}
330
C
100
AcDbDictionary
281
     1
  3
Standard
350
6C
  0
DICTIONARY
  5
17
102
{ACAD_REACTORS
330
C
102
}
330
C
100
AcDbDictionary
281
     1
  3
Standard
350
18
  0
DICTIONARY
  5
19
102
{ACAD_REACTORS
330
C
102
}
330
C
100
AcDbDictionary
281
     1
  0
ACDBDICTIONARYWDFLT
  5
E
102
{ACAD_REACTORS
330
C
102
}
330
C
100
AcDbDictionary
281
     1
  3
Normal
350
F
100
AcDbDictionaryWithDefault
340
F
  0
DICTIONARY
  5
47
102
{ACAD_REACTORS
330
C
102
}
330
C
100
AcDbDictionary
281
     1
  3
A0
350
48
  3
A1
350
49
  3
A2
350
4A
  3
A3
350
4B
  3
A4
350
4C
  3
A5
350
4D
  3
A6
350
4E
  3
A7
350
4F
  3
A8
350
50
  3
A9
350
51
  3
B0
350
52
  3
B1
350
53
  3
B2
350
54
  3
B3
350
55
  3
B4
350
56
  3
B5
350
57
  3
B6
350
58
  3
B7
350
59
  3
B8
350
5A
  3
B9
350
5B
  3
C0
350
5C
  3
C1
350
5D
  3
C2
350
5E
  3
C3
350
5F
  3
C4
350
60
  3
C5
350
61
  3
C6
350
62
  3
C7
350
63
  3
C8
350
64
  3
C9
350
65
  3
D0
350
66
  3
D1
350
67
  3
D2
350
68
  0
DICTIONARY
  5
406
102
{ACAD_REACTORS
330
C
102
}
330
C
100
AcDbDictionary
281
     1
  0
DICTIONARY
  5
69
102
{ACAD_REACTORS
330
C
102
}
330
C
100
AcDbDictionary
281
     1
  3
Standard
350
6A
  0
DICTIONARY
  5
2A
102
{ACAD_REACTORS
330
C
102
}
330
C
100
AcDbDictionary
281
     1
  3
2dWireframe
350
2F
  3
Basic
350
32
  3
Brighten
350
36
  3
ColorChange
350
3A
  3
Conceptual
350
34
  3
Dim
350
35
  3
EdgeColorOff
350
3D
  3
Facepattern
350
39
  3
Flat
350
2B
  3
FlatWithEdges
350
2C
  3
Gouraud
350
2D
  3
GouraudWithEdges
350
2E
  3
Hidden
350
31
  3
JitterOff
350
3B
  3
Linepattern
350
38
  3
OverhangOff
350
3C
  3
Realistic
350
33
  3
Shaded
350
42
  3
Shaded with edges
350
41
  3
Shades of Gray
350
3E
  3
Sketchy
350
3F
  3
Thicken
350
37
  3
Wireframe
350
30
  3
X-Ray
350
40
  0
XRECORD
  5
402
102
{ACAD_REACTORS
330
C
102
}
330
C
100
AcDbXrecord
280
     1
 90
        1
330
6A
  0
DICTIONARY
  5
3CE
102
{ACAD_REACTORS
330
C
102
}
330
C
100
AcDbDictionary
281
     1
  3
CANNOSCALE
350
3CF
  3
CMLEADERSTYLE
350
404
  3
CTABLESTYLE
350
403
  0
LAYOUT
  5
1E
102
{ACAD_REACTORS
330
1A
102
}
330
1A
100
AcDbPlotSettings
  1

  2
none_device
  4

  6

 40
0.0
 41
0.0
 42
0.0
 43
0.0
 44
0.0
 45
0.0
 46
0.0
 47
0.0
 48
0.0
 49
0.0
140
0.0
141
0.0
142
1.0
143
1.0
 70
   688
 72
     1
 73
     0
 74
     5
  7

 75
    16
 76
     0
 77
     2
 78
   300
147
1.0
148
0.0
149
0.0
100
AcDbLayout
  1
Layout1
 70
     1
 71
     1
 10
0.0
 20
0.0
 11
420.0
 21
297.0
 12
0.0
 22
0.0
 32
0.0
 14
1.000000E+20
 24
1.000000E+20
 34
1.000000E+20
 15
-1.000000E+20
 25
-1.000000E+20
 35
-1.000000E+20
146
0.0
 13
0.0
 23
0.0
 33
0.0
 16
1.0
 26
0.0
 36
0.0
 17
0.0
 27
1.0
 37
0.0
 76
     0
330
1B
  0
LAYOUT
  5
26
102
{ACAD_REACTORS
330
1A
102
}
330
1A
100
AcDbPlotSettings
  1

  2
none_device
  4

  6

 40
0.0
 41
0.0
 42
0.0
 43
0.0
 44
0.0
 45
0.0
 46
0.0
 47
0.0
 48
0.0
 49
0.0
140
0.0
141
0.0
142
1.0
143
1.0
 70
   688
 72
     1
 73
     0
 74
     5
  7

 75
    16
 76
     0
 77
     2
 78
   300
147
1.0
148
0.0
149
0.0
100
AcDbLayout
  1
Layout2
 70
     1
 71
     2
 10
0.0
 20
0.0
 11
0.0
 21
0.0
 12
0.0
 22
0.0
 32
0.0
 14
0.0
 24
0.0
 34
0.0
 15
0.0
 25
0.0
 35
0.0
146
0.0
 13
0.0
 23
0.0
 33
0.0
 16
1.0
 26
0.0
 36
0.0
 17
0.0
 27
1.0
 37
0.0
 76
     0
330
23
  0
LAYOUT
  5
22
102
{ACAD_REACTORS
330
1A
102
}
330
1A
100
AcDbPlotSettings
  1

  2
none_device
  4
Letter_(8.50_x_11.00_Inches)
  6

 40
6.35
 41
6.35
 42
6.350005
 43
6.350005
 44
215.9
 45
279.4
 46
0.0
 47
0.0
 48
0.0
 49
0.0
140
0.0
141
0.0
142
1.0
143
1.0
 70
  1712
 72
     1
 73
     0
 74
     0
  7

 75
     0
 76
     0
 77
     2
 78
   300
147
1.0
148
0.0
149
0.0
100
AcDbLayout
  1
Model
 70
     1
 71
     0
 10
0.0
 20
0.0
 11
420.0
 21
297.0
 12
0.0
 22
0.0
 32
0.0
 14
1.000000E+20
 24
1.000000E+20
 34
1.000000E+20
 15
-1.000000E+20
 25
-1.000000E+20
 35
-1.000000E+20
146
0.0
 13
0.0
 23
0.0
 33
0.0
 16
1.0
 26
0.0
 36
0.0
 17
0.0
 27
1.0
 37
0.0
 76
     0
330
1F
331
29
  0
MATERIAL
  5
45
102
{ACAD_REACTORS
330
43
102
}
330
43
100
AcDbMaterial
  1
ByBlock
 72
     1
 94
      127
  0
MATERIAL
  5
44
102
{ACAD_REACTORS
330
43
102
}
330
43
100
AcDbMaterial
  1
ByLayer
 72
     1
 94
      127
  0
MATERIAL
  5
46
102
{ACAD_REACTORS
330
43
102
}
330
43
100
AcDbMaterial
  1
Global
 72
     1
 94
      127
  0
MLEADERSTYLE
  5
6C
102
{ACAD_REACTORS
330
6B
102
}
330
6B
100
AcDbMLeaderStyle
179
     2
170
     2
171
     1
172
     0
 90
        2
 40
0.0
 41
0.0
173
     1
 91
-1056964608
340
14
 92
       -2
290
     1
 42
2.0
291
     1
 43
8.0
  3
Standard
341
0
 44
4.0
300

342
11
174
     1
178
     6
175
     1
176
     0
 93
-1056964608
 45
4.0
292
     0
297
     0
 46
4.0
343
0
 94
-1056964608
 47
1.0
 49
1.0
140
1.0
293
     1
141
0.0
294
     1
177
     0
142
1.0
295
     0
296
     0
143
3.75
271
     0
272
     9
273
     9
  0
MLINESTYLE
  5
18
102
{ACAD_REACTORS
330
17
102
}
330
17
100
AcDbMlineStyle
  2
Standard
 70
     0
  3

 62
   256
 51
90.0
 52
90.0
 71
     2
 49
0.5
 62
   256
  6
BYLAYER
 49
-0.5
 62
   256
  6
BYLAYER
  0
ACDBPLACEHOLDER
  5
F
102
{ACAD_REACTORS
330
E
102
}
330
E
  0
SCALE
  5
48
102
{ACAD_REACTORS
330
47
102
}
330
47
100
AcDbScale
 70
     0
300
1:1
140
1.0
141
1.0
290
     1
  0
SCALE
  5
49
102
{ACAD_REACTORS
330
47
102
}
330
47
100
AcDbScale
 70
     0
300
1:2
140
1.0
141
2.0
290
     0
  0
SCALE
  5
4A
102
{ACAD_REACTORS
330
47
102
}
330
47
100
AcDbScale
 70
     0
300
1:4
140
1.0
141
4.0
290
     0
  0
SCALE
  5
4B
102
{ACAD_REACTORS
330
47
102
}
330
47
100
AcDbScale
 70
     0
300
1:5
140
1.0
141
5.0
290
     0
  0
SCALE
  5
4C
102
{ACAD_REACTORS
330
47
102
}
330
47
100
AcDbScale
 70
     0
300
1:8
140
1.0
141
8.0
290
     0
  0
SCALE
  5
4D
102
{ACAD_REACTORS
330
47
102
}
330
47
100
AcDbScale
 70
     0
300
1:10
140
1.0
141
10.0
290
     0
  0
SCALE
  5
4E
102
{ACAD_REACTORS
330
47
102
}
330
47
100
AcDbScale
 70
     0
300
1:16
140
1.0
141
16.0
290
     0
  0
SCALE
  5
4F
102
{ACAD_REACTORS
330
47
102
}
330
47
100
AcDbScale
 70
     0
300
1:20
140
1.0
141
20.0
290
     0
  0
SCALE
  5
50
102
{ACAD_REACTORS
330
47
102
}
330
47
100
AcDbScale
 70
     0
300
1:30
140
1.0
141
30.0
290
     0
  0
SCALE
  5
51
102
{ACAD_REACTORS
330
47
102
}
330
47
100
AcDbScale
 70
     0
300
1:40
140
1.0
141
40.0
290
     0
  0
SCALE
  5
52
102
{ACAD_REACTORS
330
47
102
}
330
47
100
AcDbScale
 70
     0
300
1:50
140
1.0
141
50.0
290
     0
  0
SCALE
  5
53
102
{ACAD_REACTORS
330
47
102
}
330
47
100
AcDbScale
 70
     0
300
1:100
140
1.0
141
100.0
290
     0
  0
SCALE
  5
54
102
{ACAD_REACTORS
330
47
102
}
330
47
100
AcDbScale
 70
     0
300
2:1
140
2.0
141
1.0
290
     0
  0
SCALE
  5
55
102
{ACAD_REACTORS
330
47
102
}
330
47
100
AcDbScale
 70
     0
300
4:1
140
4.0
141
1.0
290
     0
  0
SCALE
  5
56
102
{ACAD_REACTORS
330
47
102
}
330
47
100
AcDbScale
 70
     0
300
8:1
140
8.0
141
1.0
290
     0
  0
SCALE
  5
57
102
{ACAD_REACTORS
330
47
102
}
330
47
100
AcDbScale
 70
     0
300
10:1
140
10.0
141
1.0
290
     0
  0
SCALE
  5
58
102
{ACAD_REACTORS
330
47
102
}
330
47
100
AcDbScale
 70
     0
300
100:1
140
100.0
141
1.0
290
     0
  0
SCALE
  5
59
102
{ACAD_REACTORS
330
47
102
}
330
47
100
AcDbScale
 70
     0
300
1/128" = 1'-0"
140
0.007812
141
12.0
290
     0
  0
SCALE
  5
5A
102
{ACAD_REACTORS
330
47
102
}
330
47
100
AcDbScale
 70
     0
300
1/64" = 1'-0"
140
0.015625
141
12.0
290
     0
  0
SCALE
  5
5B
102
{ACAD_REACTORS
330
47
102
}
330
47
100
AcDbScale
 70
     0
300
1/32" = 1'-0"
140
0.03125
141
12.0
290
     0
  0
SCALE
  5
5C
102
{ACAD_REACTORS
330
47
102
}
330
47
100
AcDbScale
 70
     0
300
1/16" = 1'-0"
140
0.0625
141
12.0
290
     0
  0
SCALE
  5
5D
102
{ACAD_REACTORS
330
47
102
}
330
47
100
AcDbScale
 70
     0
300
3/32" = 1'-0"
140
0.09375
141
12.0
290
     0
  0
SCALE
  5
5E
102
{ACAD_REACTORS
330
47
102
}
330
47
100
AcDbScale
 70
     0
300
1/8" = 1'-0"
140
0.125
141
12.0
290
     0
  0
SCALE
  5
5F
102
{ACAD_REACTORS
330
47
102
}
330
47
100
AcDbScale
 70
     0
300
3/16" = 1'-0"
140
0.1875
141
12.0
290
     0
  0
SCALE
  5
60
102
{ACAD_REACTORS
330
47
102
}
330
47
100
AcDbScale
 70
     0
300
1/4" = 1'-0"
140
0.25
141
12.0
290
     0
  0
SCALE
  5
61
102
{ACAD_REACTORS
330
47
102
}
330
47
100
AcDbScale
 70
     0
300
3/8" = 1'-0"
140
0.375
141
12.0
290
     0
  0
SCALE
  5
62
102
{ACAD_REACTORS
330
47
102
}
330
47
100
AcDbScale
 70
     0
300
1/2" = 1'-0"
140
0.5
141
12.0
290
     0
  0
SCALE
  5
63
102
{ACAD_REACTORS
330
47
102
}
330
47
100
AcDbScale
 70
     0
300
3/4" = 1'-0"
140
0.75
141
12.0
290
     0
  0
SCALE
  5
64
102
{ACAD_REACTORS
330
47
102
}
330
47
100
AcDbScale
 70
     0
300
1" = 1'-0"
140
1.0
141
12.0
290
     0
  0
SCALE
  5
65
102
{ACAD_REACTORS
330
47
102
}
330
47
100
AcDbScale
 70
     0
300
1-1/2" = 1'-0"
140
1.5
141
12.0
290
     0
  0
SCALE
  5
66
102
{ACAD_REACTORS
330
47
102
}
330
47
100
AcDbScale
 70
     0
300
3" = 1'-0"
140
3.0
141
12.0
290
     0
  0
SCALE
  5
67
102
{ACAD_REACTORS
330
47
102
}
330
47
100
AcDbScale
 70
     0
300
6" = 1'-0"
140
6.0
141
12.0
290
     0
  0
SCALE
  5
68
102
{ACAD_REACTORS
330
47
102
}
330
47
100
AcDbScale
 70
     0
300
1'-0" = 1'-0"
140
12.0
141
12.0
290
     0
  0
TABLESTYLE
  5
6A
102
{ACAD_REACTORS
330
69
102
}
102
{ACAD_XDICTIONARY
360
400
102
}
330
69
100
AcDbTableStyle
  3
Standard
 70
     0
 71
     0
 40
0.06
 41
0.06
280
     0
281
     0
  7
Standard
140
4.5
170
     2
 62
     0
 63
   257
283
     0
 90
        4
 91
        0
  1

274
    -2
284
     1
 64
     0
275
    -2
285
     1
 65
     0
276
    -2
286
     1
 66
     0
277
    -2
287
     1
 67
     0
278
    -2
288
     1
 68
     0
279
    -2
289
     1
 69
     0
  7
Standard
140
6.0
170
     5
 62
     0
 63
   257
283
     0
 90
        4
 91
        0
  1

274
    -2
284
     1
 64
     0
275
    -2
285
     1
 65
     0
276
    -2
286
     1
 66
     0
277
    -2
287
     1
 67
     0
278
    -2
288
     1
 68
     0
279
    -2
289
     1
 69
     0
  7
Standard
140
4.5
170
     5
 62
     0
 63
   257
283
     0
 90
        4
 91
        0
  1

274
    -2
284
     1
 64
     0
275
    -2
285
     1
 65
     0
276
    -2
286
     1
 66
     0
277
    -2
287
     1
 67
     0
278
    -2
288
     1
 68
     0
279
    -2
289
     1
 69
     0
  0
VISUALSTYLE
  5
2F
102
{ACAD_REACTORS
330
2A
102
}
102
{ACAD_XDICTIONARY
360
3D8
102
}
330
2A
100
AcDbVisualStyle
  2
2dWireframe
 70
     4
177
     2
291
     0
 71
     0
176
     1
 72
     2
176
     1
 73
     0
176
     1
 90
        0
176
     1
 40
0.6
176
     1
 41
30.0
176
     1
 62
     5
 63
     7
421
 16777215
176
     1
 74
     1
176
     1
 91
        4
176
     1
 64
     7
176
     1
 65
   257
176
     1
 75
     1
176
     1
175
     1
176
     1
 42
1.0
176
     1
 92
        0
176
     1
 66
   257
176
     1
 43
1.0
176
     1
 76
     1
176
     1
 77
     6
176
     1
 78
     2
176
     1
 67
     7
176
     1
 79
     5
176
     1
170
     0
176
     1
171
     0
176
     1
290
     0
176
     1
 93
        1
176
     1
 44
0.0
176
     1
173
     0
176
     1
  0
VISUALSTYLE
  5
32
102
{ACAD_REACTORS
330
2A
102
}
102
{ACAD_XDICTIONARY
360
3DE
102
}
330
2A
100
AcDbVisualStyle
  2
Basic
 70
     7
177
     2
291
     1
 71
     1
176
     1
 72
     0
176
     1
 73
     1
176
     1
 90
        0
176
     1
 40
0.6
176
     1
 41
30.0
176
     1
 62
     5
 63
     7
421
 16777215
176
     1
 74
     0
176
     1
 91
        4
176
     1
 64
     7
176
     1
 65
   257
176
     1
 75
     1
176
     1
175
     1
176
     1
 42
1.0
176
     1
 92
        8
176
     1
 66
     7
176
     1
 43
1.0
176
     1
 76
     1
176
     1
 77
     6
176
     1
 78
     2
176
     1
 67
     7
176
     1
 79
     5
176
     1
170
     0
176
     1
171
     0
176
     1
290
     0
176
     1
 93
        1
176
     1
 44
0.0
176
     1
173
     0
176
     1
  0
VISUALSTYLE
  5
36
102
{ACAD_REACTORS
330
2A
102
}
102
{ACAD_XDICTIONARY
360
3E6
102
}
330
2A
100
AcDbVisualStyle
  2
Brighten
 70
    12
177
     2
291
     1
 71
     2
176
     1
 72
     2
176
     1
 73
     0
176
     1
 90
        0
176
     1
 40
0.6
176
     1
 41
30.0
176
     1
 62
     5
 63
     7
421
 16777215
176
     1
 74
     1
176
     1
 91
        4
176
     1
 64
     7
176
     1
 65
   257
176
     1
 75
     1
176
     1
175
     1
176
     1
 42
1.0
176
     1
 92
        8
176
     1
 66
     7
176
     1
 43
1.0
176
     1
 76
     1
176
     1
 77
     6
176
     1
 78
     2
176
     1
 67
     7
176
     1
 79
     5
176
     1
170
     0
176
     1
171
     0
176
     1
290
     0
176
     1
 93
        1
176
     1
 44
50.0
176
     1
173
     0
176
     1
  0
VISUALSTYLE
  5
3A
102
{ACAD_REACTORS
330
2A
102
}
102
{ACAD_XDICTIONARY
360
3EE
102
}
330
2A
100
AcDbVisualStyle
  2
ColorChange
 70
    16
177
     2
291
     1
 71
     2
176
     1
 72
     2
176
     1
 73
     3
176
     1
 90
        0
176
     1
 40
0.6
176
     1
 41
30.0
176
     1
 62
     5
 63
     8
421
  8421504
176
     1
 74
     1
176
     1
 91
        4
176
     1
 64
     7
176
     1
 65
   257
176
     1
 75
     1
176
     1
175
     1
176
     1
 42
1.0
176
     1
 92
        8
176
     1
 66
     8
424
  8421504
176
     1
 43
1.0
176
     1
 76
     1
176
     1
 77
     6
176
     1
 78
     2
176
     1
 67
     7
176
     1
 79
     5
176
     1
170
     0
176
     1
171
     0
176
     1
290
     0
176
     1
 93
        1
176
     1
 44
0.0
176
     1
173
     0
176
     1
  0
VISUALSTYLE
  5
34
102
{ACAD_REACTORS
330
2A
102
}
102
{ACAD_XDICTIONARY
360
3E2
102
}
330
2A
100
AcDbVisualStyle
  2
Conceptual
 70
     9
177
     2
291
     0
 71
     3
176
     1
 72
     2
176
     1
 73
     0
176
     1
 90
        0
176
     1
 40
0.6
176
     1
 41
30.0
176
     1
 62
     5
 63
     7
421
 16777215
176
     1
 74
     2
176
     1
 91
        2
176
     1
 64
     7
176
     1
 65
   257
176
     1
 75
     1
176
     1
175
     1
176
     1
 42
179.0
176
     1
 92
        8
176
     1
 66
     7
176
     1
 43
1.0
176
     1
 76
     1
176
     1
 77
     6
176
     1
 78
     2
176
     1
 67
     7
176
     1
 79
     3
176
     1
170
     0
176
     1
171
     0
176
     1
290
     0
176
     1
 93
        1
176
     1
 44
0.0
176
     1
173
     0
176
     1
  0
VISUALSTYLE
  5
35
102
{ACAD_REACTORS
330
2A
102
}
102
{ACAD_XDICTIONARY
360
3E4
102
}
330
2A
100
AcDbVisualStyle
  2
Dim
 70
    11
177
     2
291
     1
 71
     2
176
     1
 72
     2
176
     1
 73
     0
176
     1
 90
        0
176
     1
 40
0.6
176
     1
 41
30.0
176
     1
 62
     5
 63
     7
421
 16777215
176
     1
 74
     1
176
     1
 91
        4
176
     1
 64
     7
176
     1
 65
   257
176
     1
 75
     1
176
     1
175
     1
176
     1
 42
1.0
176
     1
 92
        8
176
     1
 66
     7
176
     1
 43
1.0
176
     1
 76
     1
176
     1
 77
     6
176
     1
 78
     2
176
     1
 67
     7
176
     1
 79
     5
176
     1
170
     0
176
     1
171
     0
176
     1
290
     0
176
     1
 93
        1
176
     1
 44
-50.0
176
     1
173
     0
176
     1
  0
VISUALSTYLE
  5
3D
102
{ACAD_REACTORS
330
2A
102
}
102
{ACAD_XDICTIONARY
360
3F4
102
}
330
2A
100
AcDbVisualStyle
  2
EdgeColorOff
 70
    22
177
     2
291
     1
 71
     2
176
     0
 72
     2
176
     0
 73
     0
176
     0
 90
        0
176
     0
 40
0.6
176
     0
 41
30.0
176
     0
 62
     5
 63
     7
421
 16777215
176
     0
 74
     1
176
     0
 91
        4
176
     0
 64
     7
176
     0
 65
   257
176
     0
 75
     1
176
     0
175
     1
176
     0
 42
1.0
176
     0
 92
        8
176
     2
 66
     7
176
     0
 43
1.0
176
     0
 76
     1
176
     0
 77
     6
176
     0
 78
     2
176
     0
 67
     7
176
     0
 79
     5
176
     0
170
     0
176
     0
171
     0
176
     0
290
     0
176
     0
 93
        1
176
     0
 44
0.0
176
     0
173
     0
176
     0
  0
VISUALSTYLE
  5
39
102
{ACAD_REACTORS
330
2A
102
}
102
{ACAD_XDICTIONARY
360
3EC
102
}
330
2A
100
AcDbVisualStyle
  2
Facepattern
 70
    15
177
     2
291
     1
 71
     2
176
     1
 72
     2
176
     1
 73
     0
176
     1
 90
        0
176
     1
 40
0.6
176
     1
 41
30.0
176
     1
 62
     5
 63
     7
421
 16777215
176
     1
 74
     1
176
     1
 91
        4
176
     1
 64
     7
176
     1
 65
   257
176
     1
 75
     1
176
     1
175
     1
176
     1
 42
1.0
176
     1
 92
        8
176
     1
 66
     7
176
     1
 43
1.0
176
     1
 76
     1
176
     1
 77
     6
176
     1
 78
     2
176
     1
 67
     7
176
     1
 79
     5
176
     1
170
     0
176
     1
171
     0
176
     1
290
     0
176
     1
 93
        1
176
     1
 44
0.0
176
     1
173
     0
176
     1
  0
VISUALSTYLE
  5
2B
102
{ACAD_REACTORS
330
2A
102
}
102
{ACAD_XDICTIONARY
360
3D0
102
}
330
2A
100
AcDbVisualStyle
  2
Flat
 70
     0
177
     2
291
     1
 71
     2
176
     1
 72
     1
176
     1
 73
     1
176
     1
 90
        2
176
     1
 40
0.6
176
     1
 41
30.0
176
     1
 62
     5
 63
     7
421
 16777215
176
     1
 74
     0
176
     1
 91
        0
176
     1
 64
     7
176
     1
 65
   257
176
     1
 75
     1
176
     1
175
     1
176
     1
 42
1.0
176
     1
 92
        8
176
     1
 66
     7
176
     1
 43
1.0
176
     1
 76
     1
176
     1
 77
     6
176
     1
 78
     2
176
     1
 67
     7
176
     1
 79
     5
176
     1
170
     0
176
     1
171
     0
176
     1
290
     0
176
     1
 93
       13
176
     1
 44
0.0
176
     1
173
     0
176
     1
  0
VISUALSTYLE
  5
2C
102
{ACAD_REACTORS
330
2A
102
}
102
{ACAD_XDICTIONARY
360
3D2
102
}
330
2A
100
AcDbVisualStyle
  2
FlatWithEdges
 70
     1
177
     2
291
     1
 71
     2
176
     1
 72
     1
176
     1
 73
     1
176
     1
 90
        2
176
     1
 40
0.6
176
     1
 41
30.0
176
     1
 62
     5
 63
     7
421
 16777215
176
     1
 74
     1
176
     1
 91
        0
176
     1
 64
     7
176
     1
 65
   257
176
     1
 75
     1
176
     1
175
     1
176
     1
 42
1.0
176
     1
 92
        0
176
     1
 66
   257
176
     1
 43
1.0
176
     1
 76
     1
176
     1
 77
     6
176
     1
 78
     2
176
     1
 67
     7
176
     1
 79
     5
176
     1
170
     0
176
     1
171
     0
176
     1
290
     0
176
     1
 93
       13
176
     1
 44
0.0
176
     1
173
     0
176
     1
  0
VISUALSTYLE
  5
2D
102
{ACAD_REACTORS
330
2A
102
}
102
{ACAD_XDICTIONARY
360
3D4
102
}
330
2A
100
AcDbVisualStyle
  2
Gouraud
 70
     2
177
     2
291
     1
 71
     2
176
     1
 72
     2
176
     1
 73
     1
176
     1
 90
        2
176
     1
 40
0.6
176
     1
 41
30.0
176
     1
 62
     5
 63
     7
421
 16777215
176
     1
 74
     0
176
     1
 91
        0
176
     1
 64
     7
176
     1
 65
   257
176
     1
 75
     1
176
     1
175
     1
176
     1
 42
1.0
176
     1
 92
        0
176
     1
 66
     7
176
     1
 43
1.0
176
     1
 76
     1
176
     1
 77
     6
176
     1
 78
     2
176
     1
 67
     7
176
     1
 79
     5
176
     1
170
     0
176
     1
171
     0
176
     1
290
     0
176
     1
 93
       13
176
     1
 44
0.0
176
     1
173
     0
176
     1
  0
VISUALSTYLE
  5
2E
102
{ACAD_REACTORS
330
2A
102
}
102
{ACAD_XDICTIONARY
360
3D6
102
}
330
2A
100
AcDbVisualStyle
  2
GouraudWithEdges
 70
     3
177
     2
291
     1
 71
     2
176
     1
 72
     2
176
     1
 73
     1
176
     1
 90
        2
176
     1
 40
0.6
176
     1
 41
30.0
176
     1
 62
     5
 63
     7
421
 16777215
176
     1
 74
     1
176
     1
 91
        0
176
     1
 64
     7
176
     1
 65
   257
176
     1
 75
     1
176
     1
175
     1
176
     1
 42
1.0
176
     1
 92
        0
176
     1
 66
   257
176
     1
 43
1.0
176
     1
 76
     1
176
     1
 77
     6
176
     1
 78
     2
176
     1
 67
     7
176
     1
 79
     5
176
     1
170
     0
176
     1
171
     0
176
     1
290
     0
176
     1
 93
       13
176
     1
 44
0.0
176
     1
173
     0
176
     1
  0
VISUALSTYLE
  5
31
102
{ACAD_REACTORS
330
2A
102
}
102
{ACAD_XDICTIONARY
360
3DC
102
}
330
2A
100
AcDbVisualStyle
  2
Hidden
 70
     6
177
     2
291
     0
 71
     1
176
     1
 72
     2
176
     1
 73
     2
176
     1
 90
        0
176
     1
 40
0.6
176
     1
 41
30.0
176
     1
 62
     5
 63
     7
421
 16777215
176
     1
 74
     2
176
     1
 91
        2
176
     1
 64
     7
176
     1
 65
   257
176
     1
 75
     2
176
     1
175
     1
176
     1
 42
40.0
176
     1
 92
        0
176
     1
 66
   257
176
     1
 43
1.0
176
     1
 76
     1
176
     1
 77
     6
176
     1
 78
     2
176
     1
 67
     7
176
     1
 79
     3
176
     1
170
     0
176
     1
171
     0
176
     1
290
     0
176
     1
 93
        1
176
     1
 44
0.0
176
     1
173
     0
176
     1
  0
VISUALSTYLE
  5
3B
102
{ACAD_REACTORS
330
2A
102
}
102
{ACAD_XDICTIONARY
360
3F0
102
}
330
2A
100
AcDbVisualStyle
  2
JitterOff
 70
    20
177
     2
291
     1
 71
     2
176
     0
 72
     2
176
     0
 73
     0
176
     0
 90
        0
176
     0
 40
0.6
176
     0
 41
30.0
176
     0
 62
     5
 63
     7
421
 16777215
176
     0
 74
     1
176
     0
 91
        4
176
     0
 64
     7
176
     0
 65
   257
176
     0
 75
     1
176
     0
175
     1
176
     0
 42
1.0
176
     0
 92
       10
176
     2
 66
     7
176
     0
 43
1.0
176
     0
 76
     1
176
     0
 77
     6
176
     0
 78
     2
176
     0
 67
     7
176
     0
 79
     5
176
     0
170
     0
176
     0
171
     0
176
     0
290
     0
176
     0
 93
        1
176
     0
 44
0.0
176
     0
173
     0
176
     0
  0
VISUALSTYLE
  5
38
102
{ACAD_REACTORS
330
2A
102
}
102
{ACAD_XDICTIONARY
360
3EA
102
}
330
2A
100
AcDbVisualStyle
  2
Linepattern
 70
    14
177
     2
291
     1
 71
     2
176
     1
 72
     2
176
     1
 73
     0
176
     1
 90
        0
176
     1
 40
0.6
176
     1
 41
30.0
176
     1
 62
     5
 63
     7
421
 16777215
176
     1
 74
     1
176
     1
 91
        4
176
     1
 64
     7
176
     1
 65
   257
176
     1
 75
     7
176
     1
175
     7
176
     1
 42
1.0
176
     1
 92
        8
176
     1
 66
     7
176
     1
 43
1.0
176
     1
 76
     1
176
     1
 77
     6
176
     1
 78
     2
176
     1
 67
     7
176
     1
 79
     5
176
     1
170
     0
176
     1
171
     0
176
     1
290
     0
176
     1
 93
        1
176
     1
 44
0.0
176
     1
173
     0
176
     1
  0
VISUALSTYLE
  5
3C
102
{ACAD_REACTORS
330
2A
102
}
102
{ACAD_XDICTIONARY
360
3F2
102
}
330
2A
100
AcDbVisualStyle
  2
OverhangOff
 70
    21
177
     2
291
     1
 71
     2
176
     0
 72
     2
176
     0
 73
     0
176
     0
 90
        0
176
     0
 40
0.6
176
     0
 41
30.0
176
     0
 62
     5
 63
     7
421
 16777215
176
     0
 74
     1
176
     0
 91
        4
176
     0
 64
     7
176
     0
 65
   257
176
     0
 75
     1
176
     0
175
     1
176
     0
 42
1.0
176
     0
 92
        9
176
     2
 66
     7
176
     0
 43
1.0
176
     0
 76
     1
176
     0
 77
     6
176
     0
 78
     2
176
     0
 67
     7
176
     0
 79
     5
176
     0
170
     0
176
     0
171
     0
176
     0
290
     0
176
     0
 93
        1
176
     0
 44
0.0
176
     0
173
     0
176
     0
  0
VISUALSTYLE
  5
33
102
{ACAD_REACTORS
330
2A
102
}
102
{ACAD_XDICTIONARY
360
3E0
102
}
330
2A
100
AcDbVisualStyle
  2
Realistic
 70
     8
177
     2
291
     0
 71
     2
176
     1
 72
     3
176
     1
 73
     0
176
     1
 90
        2
176
     1
 40
0.6
176
     1
 41
30.0
176
     1
 62
     5
 63
     7
421
 16777215
176
     1
 74
     0
176
     1
 91
        0
176
     1
 64
     7
176
     1
 65
   257
176
     1
 75
     1
176
     1
175
     1
176
     1
 42
1.0
176
     1
 92
        8
176
     1
 66
   257
176
     1
 43
1.0
176
     1
 76
     1
176
     1
 77
     6
176
     1
 78
     2
176
     1
 67
     7
176
     1
 79
     3
176
     1
170
     0
176
     1
171
     0
176
     1
290
     0
176
     1
 93
       13
176
     1
 44
0.0
176
     1
173
     0
176
     1
  0
VISUALSTYLE
  5
42
102
{ACAD_REACTORS
330
2A
102
}
102
{ACAD_XDICTIONARY
360
3FE
102
}
330
2A
100
AcDbVisualStyle
  2
Shaded
 70
    27
177
     2
291
     0
 71
     2
176
     1
 72
     2
176
     1
 73
     1
176
     1
 90
        2
176
     1
 40
0.6
176
     1
 41
30.0
176
     1
 62
     5
 63
     7
421
 16777215
176
     1
 74
     0
176
     1
 91
        4
176
     1
 64
     7
176
     1
 65
   257
176
     1
 75
     1
176
     1
175
     1
176
     1
 42
1.0
176
     1
 92
        8
176
     1
 66
   257
176
     1
 43
1.0
176
     1
 76
     1
176
     1
 77
     6
176
     1
 78
     2
176
     1
 67
     8
425
  7895160
176
     1
 79
     3
176
     1
170
     0
176
     1
171
     0
176
     1
290
     0
176
     1
 93
        5
176
     1
 44
0.0
176
     1
173
     0
176
     1
  0
VISUALSTYLE
  5
41
102
{ACAD_REACTORS
330
2A
102
}
102
{ACAD_XDICTIONARY
360
3FC
102
}
330
2A
100
AcDbVisualStyle
  2
Shaded with edges
 70
    26
177
     2
291
     0
 71
     2
176
     1
 72
     2
176
     1
 73
     1
176
     1
 90
        2
176
     1
 40
0.6
176
     1
 41
30.0
176
     1
 62
     5
 63
     7
421
 16777215
176
     1
 74
     1
176
     1
 91
       10
176
     1
 64
     7
176
     1
 65
   257
176
     1
 75
     2
176
     1
175
     1
176
     1
 42
1.0
176
     1
 92
        8
176
     1
 66
   257
176
     1
 43
1.0
176
     1
 76
     1
176
     1
 77
     6
176
     1
 78
     2
176
     1
 67
     7
176
     1
 79
     3
176
     1
170
     0
176
     1
171
     0
176
     1
290
     0
176
     1
 93
        5
176
     1
 44
0.0
176
     1
173
     0
176
     1
  0
VISUALSTYLE
  5
3E
102
{ACAD_REACTORS
330
2A
102
}
102
{ACAD_XDICTIONARY
360
3F6
102
}
330
2A
100
AcDbVisualStyle
  2
Shades of Gray
 70
    23
177
     2
291
     0
 71
     2
176
     1
 72
     2
176
     1
 73
     3
176
     1
 90
        0
176
     1
 40
0.6
176
     1
 41
30.0
176
     1
 62
     5
 63
     7
421
 16777215
176
     1
 74
     2
176
     1
 91
        2
176
     1
 64
     7
176
     1
 65
     7
176
     1
 75
     1
176
     1
175
     1
176
     1
 42
40.0
176
     1
 92
        8
176
     1
 66
     7
176
     1
 43
1.0
176
     1
 76
     1
176
     1
 77
     6
176
     1
 78
     2
176
     1
 67
     7
176
     1
 79
     3
176
     1
170
     0
176
     1
171
     0
176
     1
290
     0
176
     1
 93
        1
176
     1
 44
0.0
176
     1
173
     0
176
     1
  0
VISUALSTYLE
  5
3F
102
{ACAD_REACTORS
330
2A
102
}
102
{ACAD_XDICTIONARY
360
3F8
102
}
330
2A
100
AcDbVisualStyle
  2
Sketchy
 70
    24
177
     2
291
     0
 71
     1
176
     1
 72
     2
176
     1
 73
     2
176
     1
 90
        0
176
     1
 40
0.6
176
     1
 41
30.0
176
     1
 62
     5
 63
     7
421
 16777215
176
     1
 74
     2
176
     1
 91
        2
176
     1
 64
     7
176
     1
 65
     7
176
     1
 75
     1
176
     1
175
     1
176
     1
 42
40.0
176
     1
 92
       11
176
     1
 66
     7
176
     1
 43
1.0
176
     1
 76
     1
176
     1
 77
     6
176
     1
 78
     2
176
     1
 67
     7
176
     1
 79
     6
176
     1
170
     0
176
     1
171
     0
176
     1
290
     0
176
     1
 93
        1
176
     1
 44
0.0
176
     1
173
     0
176
     1
  0
VISUALSTYLE
  5
37
102
{ACAD_REACTORS
330
2A
102
}
102
{ACAD_XDICTIONARY
360
3E8
102
}
330
2A
100
AcDbVisualStyle
  2
Thicken
 70
    13
177
     2
291
     1
 71
     2
176
     1
 72
     2
176
     1
 73
     0
176
     1
 90
        0
176
     1
 40
0.6
176
     1
 41
30.0
176
     1
 62
     5
 63
     7
421
 16777215
176
     1
 74
     1
176
     1
 91
        4
176
     1
 64
     7
176
     1
 65
   257
176
     1
 75
     1
176
     1
175
     1
176
     1
 42
1.0
176
     1
 92
       12
176
     1
 66
     7
176
     1
 43
1.0
176
     1
 76
     1
176
     1
 77
     6
176
     1
 78
     2
176
     1
 67
     7
176
     1
 79
     5
176
     1
170
     0
176
     1
171
     0
176
     1
290
     0
176
     1
 93
        1
176
     1
 44
0.0
176
     1
173
     0
176
     1
  0
VISUALSTYLE
  5
30
102
{ACAD_REACTORS
330
2A
102
}
102
{ACAD_XDICTIONARY
360
3DA
102
}
330
2A
100
AcDbVisualStyle
  2
Wireframe
 70
     5
177
     2
291
     0
 71
     0
176
     1
 72
     2
176
     1
 73
     0
176
     1
 90
        0
176
     1
 40
0.6
176
     1
 41
30.0
176
     1
 62
     5
 63
     7
421
 16777215
176
     1
 74
     1
176
     1
 91
        4
176
     1
 64
     7
176
     1
 65
   257
176
     1
 75
     1
176
     1
175
     1
176
     1
 42
1.0
176
     1
 92
        0
176
     1
 66
   257
176
     1
 43
1.0
176
     1
 76
     1
176
     1
 77
     6
176
     1
 78
     2
176
     1
 67
     7
176
     1
 79
     3
176
     1
170
     0
176
     1
171
     0
176
     1
290
     0
176
     1
 93
        1
176
     1
 44
0.0
176
     1
173
     0
176
     1
  0
VISUALSTYLE
  5
40
102
{ACAD_REACTORS
330
2A
102
}
102
{ACAD_XDICTIONARY
360
3FA
102
}
330
2A
100
AcDbVisualStyle
  2
X-Ray
 70
    25
177
     2
291
     0
 71
     2
176
     1
 72
     2
176
     1
 73
     1
176
     1
 90
        1
176
     1
 40
0.5
176
     1
 41
30.0
176
     1
 62
     5
 63
     7
421
 16777215
176
     1
 74
     1
176
     1
 91
        0
176
     1
 64
     7
176
     1
 65
   257
176
     1
 75
     1
176
     1
175
     1
176
     1
 42
1.0
176
     1
 92
        8
176
     1
 66
     7
176
     1
 43
1.0
176
     1
 76
     1
176
     1
 77
     6
176
     1
 78
     2
176
     1
 67
     7
176
     1
 79
     3
176
     1
170
     0
176
     1
171
     0
176
     1
290
     0
176
     1
 93
       13
176
     1
 44
0.0
176
     1
173
     0
176
     1
  0
DICTIONARYVAR
  5
3CF
102
{ACAD_REACTORS
330
3CE
102
}
330
3CE
100
DictionaryVariables
280
     0
  1
1:1
  0
DICTIONARYVAR
  5
404
102
{ACAD_REACTORS
330
3CE
102
}
330
3CE
100
DictionaryVariables
280
     0
  1
Standard
  0
DICTIONARYVAR
  5
403
102
{ACAD_REACTORS
330
3CE
102
}
330
3CE
100
DictionaryVariables
280
     0
  1
Standard
  0
DICTIONARY
  5
400
330
6A
100
AcDbDictionary
280
     1
281
     1
  3
ACAD_ROUNDTRIP_2008_TABLESTYLE_CELLSTYLEMAP
360
401
  0
DICTIONARY
  5
3D8
330
2F
100
AcDbDictionary
280
     1
281
     1
  3
ACAD_XREC_ROUNDTRIP
360
3D9
  0
DICTIONARY
  5
3DE
330
32
100
AcDbDictionary
280
     1
281
     1
  3
ACAD_XREC_ROUNDTRIP
360
3DF
  0
DICTIONARY
  5
3E6
330
36
100
AcDbDictionary
280
     1
281
     1
  3
ACAD_XREC_ROUNDTRIP
360
3E7
  0
DICTIONARY
  5
3EE
330
3A
100
AcDbDictionary
280
     1
281
     1
  3
ACAD_XREC_ROUNDTRIP
360
3EF
  0
DICTIONARY
  5
3E2
330
34
100
AcDbDictionary
280
     1
281
     1
  3
ACAD_XREC_ROUNDTRIP
360
3E3
  0
DICTIONARY
  5
3E4
330
35
100
AcDbDictionary
280
     1
281
     1
  3
ACAD_XREC_ROUNDTRIP
360
3E5
  0
DICTIONARY
  5
3F4
330
3D
100
AcDbDictionary
280
     1
281
     1
  3
ACAD_XREC_ROUNDTRIP
360
3F5
  0
DICTIONARY
  5
3EC
330
39
100
AcDbDictionary
280
     1
281
     1
  3
ACAD_XREC_ROUNDTRIP
360
3ED
  0
DICTIONARY
  5
3D0
330
2B
100
AcDbDictionary
280
     1
281
     1
  3
ACAD_XREC_ROUNDTRIP
360
3D1
  0
DICTIONARY
  5
3D2
330
2C
100
AcDbDictionary
280
     1
281
     1
  3
ACAD_XREC_ROUNDTRIP
360
3D3
  0
DICTIONARY
  5
3D4
330
2D
100
AcDbDictionary
280
     1
281
     1
  3
ACAD_XREC_ROUNDTRIP
360
3D5
  0
DICTIONARY
  5
3D6
330
2E
100
AcDbDictionary
280
     1
281
     1
  3
ACAD_XREC_ROUNDTRIP
360
3D7
  0
DICTIONARY
  5
3DC
330
31
100
AcDbDictionary
280
     1
281
     1
  3
ACAD_XREC_ROUNDTRIP
360
3DD
  0
DICTIONARY
  5
3F0
330
3B
100
AcDbDictionary
280
     1
281
     1
  3
ACAD_XREC_ROUNDTRIP
360
3F1
  0
DICTIONARY
  5
3EA
330
38
100
AcDbDictionary
280
     1
281
     1
  3
ACAD_XREC_ROUNDTRIP
360
3EB
  0
DICTIONARY
  5
3F2
330
3C
100
AcDbDictionary
280
     1
281
     1
  3
ACAD_XREC_ROUNDTRIP
360
3F3
  0
DICTIONARY
  5
3E0
330
33
100
AcDbDictionary
280
     1
281
     1
  3
ACAD_XREC_ROUNDTRIP
360
3E1
  0
DICTIONARY
  5
3FE
330
42
100
AcDbDictionary
280
     1
281
     1
  3
ACAD_XREC_ROUNDTRIP
360
3FF
  0
DICTIONARY
  5
3FC
330
41
100
AcDbDictionary
280
     1
281
     1
  3
ACAD_XREC_ROUNDTRIP
360
3FD
  0
DICTIONARY
  5
3F6
330
3E
100
AcDbDictionary
280
     1
281
     1
  3
ACAD_XREC_ROUNDTRIP
360
3F7
  0
DICTIONARY
  5
3F8
330
3F
100
AcDbDictionary
280
     1
281
     1
  3
ACAD_XREC_ROUNDTRIP
360
3F9
  0
DICTIONARY
  5
3E8
330
37
100
AcDbDictionary
280
     1
281
     1
  3
ACAD_XREC_ROUNDTRIP
360
3E9
  0
DICTIONARY
  5
3DA
330
30
100
AcDbDictionary
280
     1
281
     1
  3
ACAD_XREC_ROUNDTRIP
360
3DB
  0
DICTIONARY
  5
3FA
330
40
100
AcDbDictionary
280
     1
281
     1
  3
ACAD_XREC_ROUNDTRIP
360
3FB
  0
CELLSTYLEMAP
  5
401
102
{ACAD_REACTORS
330
400
102
}
330
400
100
AcDbCellStyleMap
 90
        3
300
CELLSTYLE
  1
TABLEFORMAT_BEGIN
 90
        5
170
     1
 91
        0
 92
    32768
 62
   257
 93
        1
300
CONTENTFORMAT
  1
CONTENTFORMAT_BEGIN
 90
        0
 91
        0
 92
        4
 93
        0
300

 40
0.0
140
1.0
 94
        5
 62
     0
340
11
144
6.0
309
CONTENTFORMAT_END
171
     1
301
MARGIN
  1
CELLMARGIN_BEGIN
 40
1.5
 40
1.5
 40
1.5
 40
1.5
 40
1.5
 40
1.5
309
CELLMARGIN_END
 94
        6
 95
        1
302
GRIDFORMAT
  1
GRIDFORMAT_BEGIN
 90
        0
 91
        1
 62
     0
 92
       -2
340
14
 93
        0
 40
0.045
309
GRIDFORMAT_END
 95
        2
302
GRIDFORMAT
  1
GRIDFORMAT_BEGIN
 90
        0
 91
        1
 62
     0
 92
       -2
340
14
 93
        0
 40
0.045
309
GRIDFORMAT_END
 95
        4
302
GRIDFORMAT
  1
GRIDFORMAT_BEGIN
 90
        0
 91
        1
 62
     0
 92
       -2
340
14
 93
        0
 40
0.045
309
GRIDFORMAT_END
 95
        8
302
GRIDFORMAT
  1
GRIDFORMAT_BEGIN
 90
        0
 91
        1
 62
     0
 92
       -2
340
14
 93
        0
 40
0.045
309
GRIDFORMAT_END
 95
       16
302
GRIDFORMAT
  1
GRIDFORMAT_BEGIN
 90
        0
 91
        1
 62
     0
 92
       -2
340
14
 93
        0
 40
0.045
309
GRIDFORMAT_END
 95
       32
302
GRIDFORMAT
  1
GRIDFORMAT_BEGIN
 90
        0
 91
        1
 62
     0
 92
       -2
340
14
 93
        0
 40
0.045
309
GRIDFORMAT_END
309
TABLEFORMAT_END
  1
CELLSTYLE_BEGIN
 90
        1
 91
        1
300
_TITLE
309
CELLSTYLE_END
300
CELLSTYLE
  1
TABLEFORMAT_BEGIN
 90
        5
170
     1
 91
        0
 92
        0
 62
   257
 93
        1
300
CONTENTFORMAT
  1
CONTENTFORMAT_BEGIN
 90
        0
 91
        0
 92
        4
 93
        0
300

 40
0.0
140
1.0
 94
        5
 62
     0
340
11
144
4.5
309
CONTENTFORMAT_END
171
     1
301
MARGIN
  1
CELLMARGIN_BEGIN
 40
1.5
 40
1.5
 40
1.5
 40
1.5
 40
1.5
 40
1.5
309
CELLMARGIN_END
 94
        6
 95
        1
302
GRIDFORMAT
  1
GRIDFORMAT_BEGIN
 90
        0
 91
        1
 62
     0
 92
       -2
340
14
 93
        0
 40
0.045
309
GRIDFORMAT_END
 95
        2
302
GRIDFORMAT
  1
GRIDFORMAT_BEGIN
 90
        0
 91
        1
 62
     0
 92
       -2
340
14
 93
        0
 40
0.045
309
GRIDFORMAT_END
 95
        4
302
GRIDFORMAT
  1
GRIDFORMAT_BEGIN
 90
        0
 91
        1
 62
     0
 92
       -2
340
14
 93
        0
 40
0.045
309
GRIDFORMAT_END
 95
        8
302
GRIDFORMAT
  1
GRIDFORMAT_BEGIN
 90
        0
 91
        1
 62
     0
 92
       -2
340
14
 93
        0
 40
0.045
309
GRIDFORMAT_END
 95
       16
302
GRIDFORMAT
  1
GRIDFORMAT_BEGIN
 90
        0
 91
        1
 62
     0
 92
       -2
340
14
 93
        0
 40
0.045
309
GRIDFORMAT_END
 95
       32
302
GRIDFORMAT
  1
GRIDFORMAT_BEGIN
 90
        0
 91
        1
 62
     0
 92
       -2
340
14
 93
        0
 40
0.045
309
GRIDFORMAT_END
309
TABLEFORMAT_END
  1
CELLSTYLE_BEGIN
 90
        2
 91
        1
300
_HEADER
309
CELLSTYLE_END
300
CELLSTYLE
  1
TABLEFORMAT_BEGIN
 90
        5
170
     1
 91
        0
 92
        0
 62
   257
 93
        1
300
CONTENTFORMAT
  1
CONTENTFORMAT_BEGIN
 90
        0
 91
        0
 92
        4
 93
        0
300

 40
0.0
140
1.0
 94
        2
 62
     0
340
11
144
4.5
309
CONTENTFORMAT_END
171
     1
301
MARGIN
  1
CELLMARGIN_BEGIN
 40
1.5
 40
1.5
 40
1.5
 40
1.5
 40
1.5
 40
1.5
309
CELLMARGIN_END
 94
        6
 95
        1
302
GRIDFORMAT
  1
GRIDFORMAT_BEGIN
 90
        0
 91
        1
 62
     0
 92
       -2
340
14
 93
        0
 40
0.045
309
GRIDFORMAT_END
 95
        2
302
GRIDFORMAT
  1
GRIDFORMAT_BEGIN
 90
        0
 91
        1
 62
     0
 92
       -2
340
14
 93
        0
 40
0.045
309
GRIDFORMAT_END
 95
        4
302
GRIDFORMAT
  1
GRIDFORMAT_BEGIN
 90
        0
 91
        1
 62
     0
 92
       -2
340
14
 93
        0
 40
0.045
309
GRIDFORMAT_END
 95
        8
302
GRIDFORMAT
  1
GRIDFORMAT_BEGIN
 90
        0
 91
        1
 62
     0
 92
       -2
340
14
 93
        0
 40
0.045
309
GRIDFORMAT_END
 95
       16
302
GRIDFORMAT
  1
GRIDFORMAT_BEGIN
 90
        0
 91
        1
 62
     0
 92
       -2
340
14
 93
        0
 40
0.045
309
GRIDFORMAT_END
 95
       32
302
GRIDFORMAT
  1
GRIDFORMAT_BEGIN
 90
        0
 91
        1
 62
     0
 92
       -2
340
14
 93
        0
 40
0.045
309
GRIDFORMAT_END
309
TABLEFORMAT_END
  1
CELLSTYLE_BEGIN
 90
        3
 91
        2
300
_DATA
309
CELLSTYLE_END
  0
XRECORD
  5
3D9
102
{ACAD_REACTORS
330
3D8
102
}
330
3D8
100
AcDbXrecord
280
     1
102
RTVSPost2010Prop28
280
     1
102
RTVSPost2010PropOp28
 70
     1
102
RTVSPost2010Prop29
280
     1
102
RTVSPost2010PropOp29
 70
     1
102
RTVSPost2010Prop30
280
     0
102
RTVSPost2010PropOp30
 70
     1
102
RTVSPost2010Prop31
280
     0
102
RTVSPost2010PropOp31
 70
     1
102
RTVSPost2010Prop32
280
     0
102
RTVSPost2010PropOp32
 70
     1
102
RTVSPost2010Prop33
280
     0
102
RTVSPost2010PropOp33
 70
     1
102
RTVSPost2010Prop34
280
     0
102
RTVSPost2010PropOp34
 70
     1
102
RTVSPost2010Prop35
280
     0
102
RTVSPost2010PropOp35
 70
     1
102
RTVSPost2010Prop36
280
     0
102
RTVSPost2010PropOp36
 70
     1
102
RTVSPost2010Prop37
 90
       50
102
RTVSPost2010PropOp37
 70
     1
102
RTVSPost2010Prop38
140
0.0
102
RTVSPost2010PropOp38
 70
     1
102
RTVSPost2010Prop39
140
1.0
102
RTVSPost2010PropOp39
 70
     1
102
RTVSPost2010Prop40
 90
        0
102
RTVSPost2010PropOp40
 70
     1
102
RTVSPost2010Prop41ColorIndex
 90
       18
102
RTVSPost2010Prop41ColorRGB
 90
        0
102
RTVSPost2010PropOp41
 70
     1
102
RTVSPost2010Prop42
 90
       50
102
RTVSPost2010PropOp42
 70
     1
102
RTVSPost2010Prop43
 90
        3
102
RTVSPost2010PropOp43
 70
     1
102
RTVSPost2010Prop44ColorIndex
 90
        5
102
RTVSPost2010Prop44ColorRGB
 90
      255
102
RTVSPost2010PropOp44
 70
     1
102
RTVSPost2010Prop45
280
     0
102
RTVSPost2010PropOp45
 70
     1
102
RTVSPost2010Prop46
 90
       50
102
RTVSPost2010PropOp46
 70
     1
102
RTVSPost2010Prop47
 90
       50
102
RTVSPost2010PropOp47
 70
     1
102
RTVSPost2010Prop48
 90
       50
102
RTVSPost2010PropOp48
 70
     1
102
RTVSPost2010Prop49
280
     0
102
RTVSPost2010PropOp49
 70
     1
102
RTVSPost2010Prop50
 90
       50
102
RTVSPost2010PropOp50
 70
     1
102
RTVSPost2010Prop51ColorIndex
 90
      256
102
RTVSPost2010Prop51ColorRGB
 90
-16777216
102
RTVSPost2010PropOp51
 70
     0
102
RTVSPost2010Prop52
140
1.0
102
RTVSPost2010PropOp52
 70
     0
102
RTVSPost2010Prop53
 90
        2
102
RTVSPost2010PropOp53
 70
     1
102
RTVSPost2010Prop54
  1
strokes_ogs.tif
102
RTVSPost2010PropOp54
 70
     1
102
RTVSPost2010Prop55
280
     0
102
RTVSPost2010PropOp55
 70
     1
102
RTVSPost2010Prop56
140
1.0
102
RTVSPost2010PropOp56
 70
     1
102
RTVSPost2010Prop57
140
1.0
102
RTVSPost2010PropOp57
 70
     1
  0
XRECORD
  5
3DF
102
{ACAD_REACTORS
330
3DE
102
}
330
3DE
100
AcDbXrecord
280
     1
102
RTVSPost2010Prop28
280
     0
102
RTVSPost2010PropOp28
 70
     1
102
RTVSPost2010Prop29
280
     1
102
RTVSPost2010PropOp29
 70
     1
102
RTVSPost2010Prop30
280
     1
102
RTVSPost2010PropOp30
 70
     1
102
RTVSPost2010Prop31
280
     0
102
RTVSPost2010PropOp31
 70
     1
102
RTVSPost2010Prop32
280
     0
102
RTVSPost2010PropOp32
 70
     1
102
RTVSPost2010Prop33
280
     0
102
RTVSPost2010PropOp33
 70
     1
102
RTVSPost2010Prop34
280
     0
102
RTVSPost2010PropOp34
 70
     1
102
RTVSPost2010Prop35
280
     0
102
RTVSPost2010PropOp35
 70
     1
102
RTVSPost2010Prop36
280
     0
102
RTVSPost2010PropOp36
 70
     1
102
RTVSPost2010Prop37
 90
       50
102
RTVSPost2010PropOp37
 70
     1
102
RTVSPost2010Prop38
140
0.0
102
RTVSPost2010PropOp38
 70
     1
102
RTVSPost2010Prop39
140
1.0
102
RTVSPost2010PropOp39
 70
     1
102
RTVSPost2010Prop40
 90
        0
102
RTVSPost2010PropOp40
 70
     1
102
RTVSPost2010Prop41ColorIndex
 90
       18
102
RTVSPost2010Prop41ColorRGB
 90
        0
102
RTVSPost2010PropOp41
 70
     1
102
RTVSPost2010Prop42
 90
       50
102
RTVSPost2010PropOp42
 70
     1
102
RTVSPost2010Prop43
 90
        3
102
RTVSPost2010PropOp43
 70
     1
102
RTVSPost2010Prop44ColorIndex
 90
        5
102
RTVSPost2010Prop44ColorRGB
 90
      255
102
RTVSPost2010PropOp44
 70
     1
102
RTVSPost2010Prop45
280
     0
102
RTVSPost2010PropOp45
 70
     1
102
RTVSPost2010Prop46
 90
       50
102
RTVSPost2010PropOp46
 70
     1
102
RTVSPost2010Prop47
 90
       50
102
RTVSPost2010PropOp47
 70
     1
102
RTVSPost2010Prop48
 90
       50
102
RTVSPost2010PropOp48
 70
     1
102
RTVSPost2010Prop49
280
     0
102
RTVSPost2010PropOp49
 70
     1
102
RTVSPost2010Prop50
 90
       50
102
RTVSPost2010PropOp50
 70
     1
102
RTVSPost2010Prop51ColorIndex
 90
      256
102
RTVSPost2010Prop51ColorRGB
 90
-16777216
102
RTVSPost2010PropOp51
 70
     0
102
RTVSPost2010Prop52
140
1.0
102
RTVSPost2010PropOp52
 70
     0
102
RTVSPost2010Prop53
 90
        2
102
RTVSPost2010PropOp53
 70
     1
102
RTVSPost2010Prop54
  1
strokes_ogs.tif
102
RTVSPost2010PropOp54
 70
     1
102
RTVSPost2010Prop55
280
     0
102
RTVSPost2010PropOp55
 70
     1
102
RTVSPost2010Prop56
140
1.0
102
RTVSPost2010PropOp56
 70
     1
102
RTVSPost2010Prop57
140
1.0
102
RTVSPost2010PropOp57
 70
     1
  0
XRECORD
  5
3E7
102
{ACAD_REACTORS
330
3E6
102
}
330
3E6
100
AcDbXrecord
280
     1
102
RTVSPost2010Prop28
280
     0
102
RTVSPost2010PropOp28
 70
     1
102
RTVSPost2010Prop29
280
     1
102
RTVSPost2010PropOp29
 70
     1
102
RTVSPost2010Prop30
280
     1
102
RTVSPost2010PropOp30
 70
     1
102
RTVSPost2010Prop31
280
     0
102
RTVSPost2010PropOp31
 70
     1
102
RTVSPost2010Prop32
280
     0
102
RTVSPost2010PropOp32
 70
     1
102
RTVSPost2010Prop33
280
     0
102
RTVSPost2010PropOp33
 70
     1
102
RTVSPost2010Prop34
280
     0
102
RTVSPost2010PropOp34
 70
     1
102
RTVSPost2010Prop35
280
     0
102
RTVSPost2010PropOp35
 70
     1
102
RTVSPost2010Prop36
280
     0
102
RTVSPost2010PropOp36
 70
     1
102
RTVSPost2010Prop37
 90
       50
102
RTVSPost2010PropOp37
 70
     1
102
RTVSPost2010Prop38
140
0.0
102
RTVSPost2010PropOp38
 70
     1
102
RTVSPost2010Prop39
140
1.0
102
RTVSPost2010PropOp39
 70
     1
102
RTVSPost2010Prop40
 90
        0
102
RTVSPost2010PropOp40
 70
     1
102
RTVSPost2010Prop41ColorIndex
 90
       18
102
RTVSPost2010Prop41ColorRGB
 90
        0
102
RTVSPost2010PropOp41
 70
     1
102
RTVSPost2010Prop42
 90
       50
102
RTVSPost2010PropOp42
 70
     1
102
RTVSPost2010Prop43
 90
        3
102
RTVSPost2010PropOp43
 70
     1
102
RTVSPost2010Prop44ColorIndex
 90
        5
102
RTVSPost2010Prop44ColorRGB
 90
      255
102
RTVSPost2010PropOp44
 70
     1
102
RTVSPost2010Prop45
280
     0
102
RTVSPost2010PropOp45
 70
     1
102
RTVSPost2010Prop46
 90
       50
102
RTVSPost2010PropOp46
 70
     1
102
RTVSPost2010Prop47
 90
       50
102
RTVSPost2010PropOp47
 70
     1
102
RTVSPost2010Prop48
 90
       50
102
RTVSPost2010PropOp48
 70
     1
102
RTVSPost2010Prop49
280
     0
102
RTVSPost2010PropOp49
 70
     1
102
RTVSPost2010Prop50
 90
       50
102
RTVSPost2010PropOp50
 70
     1
102
RTVSPost2010Prop51ColorIndex
 90
      256
102
RTVSPost2010Prop51ColorRGB
 90
-16777216
102
RTVSPost2010PropOp51
 70
     0
102
RTVSPost2010Prop52
140
1.0
102
RTVSPost2010PropOp52
 70
     0
102
RTVSPost2010Prop53
 90
        2
102
RTVSPost2010PropOp53
 70
     1
102
RTVSPost2010Prop54
  1
strokes_ogs.tif
102
RTVSPost2010PropOp54
 70
     1
102
RTVSPost2010Prop55
280
     0
102
RTVSPost2010PropOp55
 70
     1
102
RTVSPost2010Prop56
140
1.0
102
RTVSPost2010PropOp56
 70
     1
102
RTVSPost2010Prop57
140
1.0
102
RTVSPost2010PropOp57
 70
     1
  0
XRECORD
  5
3EF
102
{ACAD_REACTORS
330
3EE
102
}
330
3EE
100
AcDbXrecord
280
     1
102
RTVSPost2010Prop28
280
     0
102
RTVSPost2010PropOp28
 70
     1
102
RTVSPost2010Prop29
280
     1
102
RTVSPost2010PropOp29
 70
     1
102
RTVSPost2010Prop30
280
     1
102
RTVSPost2010PropOp30
 70
     1
102
RTVSPost2010Prop31
280
     0
102
RTVSPost2010PropOp31
 70
     1
102
RTVSPost2010Prop32
280
     0
102
RTVSPost2010PropOp32
 70
     1
102
RTVSPost2010Prop33
280
     0
102
RTVSPost2010PropOp33
 70
     1
102
RTVSPost2010Prop34
280
     0
102
RTVSPost2010PropOp34
 70
     1
102
RTVSPost2010Prop35
280
     0
102
RTVSPost2010PropOp35
 70
     1
102
RTVSPost2010Prop36
280
     0
102
RTVSPost2010PropOp36
 70
     1
102
RTVSPost2010Prop37
 90
       50
102
RTVSPost2010PropOp37
 70
     1
102
RTVSPost2010Prop38
140
0.0
102
RTVSPost2010PropOp38
 70
     1
102
RTVSPost2010Prop39
140
1.0
102
RTVSPost2010PropOp39
 70
     1
102
RTVSPost2010Prop40
 90
        0
102
RTVSPost2010PropOp40
 70
     1
102
RTVSPost2010Prop41ColorIndex
 90
       18
102
RTVSPost2010Prop41ColorRGB
 90
        0
102
RTVSPost2010PropOp41
 70
     1
102
RTVSPost2010Prop42
 90
       50
102
RTVSPost2010PropOp42
 70
     1
102
RTVSPost2010Prop43
 90
        3
102
RTVSPost2010PropOp43
 70
     1
102
RTVSPost2010Prop44ColorIndex
 90
        5
102
RTVSPost2010Prop44ColorRGB
 90
      255
102
RTVSPost2010PropOp44
 70
     1
102
RTVSPost2010Prop45
280
     0
102
RTVSPost2010PropOp45
 70
     1
102
RTVSPost2010Prop46
 90
       50
102
RTVSPost2010PropOp46
 70
     1
102
RTVSPost2010Prop47
 90
       50
102
RTVSPost2010PropOp47
 70
     1
102
RTVSPost2010Prop48
 90
       50
102
RTVSPost2010PropOp48
 70
     1
102
RTVSPost2010Prop49
280
     0
102
RTVSPost2010PropOp49
 70
     1
102
RTVSPost2010Prop50
 90
       50
102
RTVSPost2010PropOp50
 70
     1
102
RTVSPost2010Prop51ColorIndex
 90
      256
102
RTVSPost2010Prop51ColorRGB
 90
-16777216
102
RTVSPost2010PropOp51
 70
     0
102
RTVSPost2010Prop52
140
1.0
102
RTVSPost2010PropOp52
 70
     0
102
RTVSPost2010Prop53
 90
        2
102
RTVSPost2010PropOp53
 70
     1
102
RTVSPost2010Prop54
  1
strokes_ogs.tif
102
RTVSPost2010PropOp54
 70
     1
102
RTVSPost2010Prop55
280
     0
102
RTVSPost2010PropOp55
 70
     1
102
RTVSPost2010Prop56
140
1.0
102
RTVSPost2010PropOp56
 70
     1
102
RTVSPost2010Prop57
140
1.0
102
RTVSPost2010PropOp57
 70
     1
  0
XRECORD
  5
3E3
102
{ACAD_REACTORS
330
3E2
102
}
330
3E2
100
AcDbXrecord
280
     1
102
RTVSPost2010Prop28
280
     0
102
RTVSPost2010PropOp28
 70
     1
102
RTVSPost2010Prop29
280
     1
102
RTVSPost2010PropOp29
 70
     1
102
RTVSPost2010Prop30
280
     1
102
RTVSPost2010PropOp30
 70
     1
102
RTVSPost2010Prop31
280
     0
102
RTVSPost2010PropOp31
 70
     1
102
RTVSPost2010Prop32
280
     0
102
RTVSPost2010PropOp32
 70
     1
102
RTVSPost2010Prop33
280
     0
102
RTVSPost2010PropOp33
 70
     1
102
RTVSPost2010Prop34
280
     0
102
RTVSPost2010PropOp34
 70
     1
102
RTVSPost2010Prop35
280
     0
102
RTVSPost2010PropOp35
 70
     1
102
RTVSPost2010Prop36
280
     0
102
RTVSPost2010PropOp36
 70
     1
102
RTVSPost2010Prop37
 90
       50
102
RTVSPost2010PropOp37
 70
     1
102
RTVSPost2010Prop38
140
0.0
102
RTVSPost2010PropOp38
 70
     1
102
RTVSPost2010Prop39
140
1.0
102
RTVSPost2010PropOp39
 70
     1
102
RTVSPost2010Prop40
 90
        0
102
RTVSPost2010PropOp40
 70
     1
102
RTVSPost2010Prop41ColorIndex
 90
       18
102
RTVSPost2010Prop41ColorRGB
 90
        0
102
RTVSPost2010PropOp41
 70
     1
102
RTVSPost2010Prop42
 90
       50
102
RTVSPost2010PropOp42
 70
     1
102
RTVSPost2010Prop43
 90
        3
102
RTVSPost2010PropOp43
 70
     1
102
RTVSPost2010Prop44ColorIndex
 90
        5
102
RTVSPost2010Prop44ColorRGB
 90
      255
102
RTVSPost2010PropOp44
 70
     1
102
RTVSPost2010Prop45
280
     0
102
RTVSPost2010PropOp45
 70
     1
102
RTVSPost2010Prop46
 90
       50
102
RTVSPost2010PropOp46
 70
     1
102
RTVSPost2010Prop47
 90
       50
102
RTVSPost2010PropOp47
 70
     1
102
RTVSPost2010Prop48
 90
       50
102
RTVSPost2010PropOp48
 70
     1
102
RTVSPost2010Prop49
280
     0
102
RTVSPost2010PropOp49
 70
     1
102
RTVSPost2010Prop50
 90
       50
102
RTVSPost2010PropOp50
 70
     1
102
RTVSPost2010Prop51ColorIndex
 90
      256
102
RTVSPost2010Prop51ColorRGB
 90
-16777216
102
RTVSPost2010PropOp51
 70
     0
102
RTVSPost2010Prop52
140
1.0
102
RTVSPost2010PropOp52
 70
     0
102
RTVSPost2010Prop53
 90
        2
102
RTVSPost2010PropOp53
 70
     1
102
RTVSPost2010Prop54
  1
strokes_ogs.tif
102
RTVSPost2010PropOp54
 70
     1
102
RTVSPost2010Prop55
280
     0
102
RTVSPost2010PropOp55
 70
     1
102
RTVSPost2010Prop56
140
1.0
102
RTVSPost2010PropOp56
 70
     1
102
RTVSPost2010Prop57
140
1.0
102
RTVSPost2010PropOp57
 70
     1
  0
XRECORD
  5
3E5
102
{ACAD_REACTORS
330
3E4
102
}
330
3E4
100
AcDbXrecord
280
     1
102
RTVSPost2010Prop28
280
     0
102
RTVSPost2010PropOp28
 70
     1
102
RTVSPost2010Prop29
280
     1
102
RTVSPost2010PropOp29
 70
     1
102
RTVSPost2010Prop30
280
     1
102
RTVSPost2010PropOp30
 70
     1
102
RTVSPost2010Prop31
280
     0
102
RTVSPost2010PropOp31
 70
     1
102
RTVSPost2010Prop32
280
     0
102
RTVSPost2010PropOp32
 70
     1
102
RTVSPost2010Prop33
280
     0
102
RTVSPost2010PropOp33
 70
     1
102
RTVSPost2010Prop34
280
     0
102
RTVSPost2010PropOp34
 70
     1
102
RTVSPost2010Prop35
280
     0
102
RTVSPost2010PropOp35
 70
     1
102
RTVSPost2010Prop36
280
     0
102
RTVSPost2010PropOp36
 70
     1
102
RTVSPost2010Prop37
 90
       50
102
RTVSPost2010PropOp37
 70
     1
102
RTVSPost2010Prop38
140
0.0
102
RTVSPost2010PropOp38
 70
     1
102
RTVSPost2010Prop39
140
1.0
102
RTVSPost2010PropOp39
 70
     1
102
RTVSPost2010Prop40
 90
        0
102
RTVSPost2010PropOp40
 70
     1
102
RTVSPost2010Prop41ColorIndex
 90
       18
102
RTVSPost2010Prop41ColorRGB
 90
        0
102
RTVSPost2010PropOp41
 70
     1
102
RTVSPost2010Prop42
 90
       50
102
RTVSPost2010PropOp42
 70
     1
102
RTVSPost2010Prop43
 90
        3
102
RTVSPost2010PropOp43
 70
     1
102
RTVSPost2010Prop44ColorIndex
 90
        5
102
RTVSPost2010Prop44ColorRGB
 90
      255
102
RTVSPost2010PropOp44
 70
     1
102
RTVSPost2010Prop45
280
     0
102
RTVSPost2010PropOp45
 70
     1
102
RTVSPost2010Prop46
 90
       50
102
RTVSPost2010PropOp46
 70
     1
102
RTVSPost2010Prop47
 90
       50
102
RTVSPost2010PropOp47
 70
     1
102
RTVSPost2010Prop48
 90
       50
102
RTVSPost2010PropOp48
 70
     1
102
RTVSPost2010Prop49
280
     0
102
RTVSPost2010PropOp49
 70
     1
102
RTVSPost2010Prop50
 90
       50
102
RTVSPost2010PropOp50
 70
     1
102
RTVSPost2010Prop51ColorIndex
 90
      256
102
RTVSPost2010Prop51ColorRGB
 90
-16777216
102
RTVSPost2010PropOp51
 70
     0
102
RTVSPost2010Prop52
140
1.0
102
RTVSPost2010PropOp52
 70
     0
102
RTVSPost2010Prop53
 90
        2
102
RTVSPost2010PropOp53
 70
     1
102
RTVSPost2010Prop54
  1
strokes_ogs.tif
102
RTVSPost2010PropOp54
 70
     1
102
RTVSPost2010Prop55
280
     0
102
RTVSPost2010PropOp55
 70
     1
102
RTVSPost2010Prop56
140
1.0
102
RTVSPost2010PropOp56
 70
     1
102
RTVSPost2010Prop57
140
1.0
102
RTVSPost2010PropOp57
 70
     1
  0
XRECORD
  5
3F5
102
{ACAD_REACTORS
330
3F4
102
}
330
3F4
100
AcDbXrecord
280
     1
102
RTVSPost2010Prop28
280
     0
102
RTVSPost2010PropOp28
 70
     0
102
RTVSPost2010Prop29
280
     1
102
RTVSPost2010PropOp29
 70
     0
102
RTVSPost2010Prop30
280
     1
102
RTVSPost2010PropOp30
 70
     0
102
RTVSPost2010Prop31
280
     0
102
RTVSPost2010PropOp31
 70
     0
102
RTVSPost2010Prop32
280
     0
102
RTVSPost2010PropOp32
 70
     0
102
RTVSPost2010Prop33
280
     0
102
RTVSPost2010PropOp33
 70
     0
102
RTVSPost2010Prop34
280
     0
102
RTVSPost2010PropOp34
 70
     0
102
RTVSPost2010Prop35
280
     0
102
RTVSPost2010PropOp35
 70
     0
102
RTVSPost2010Prop36
280
     0
102
RTVSPost2010PropOp36
 70
     0
102
RTVSPost2010Prop37
 90
       50
102
RTVSPost2010PropOp37
 70
     0
102
RTVSPost2010Prop38
140
0.0
102
RTVSPost2010PropOp38
 70
     0
102
RTVSPost2010Prop39
140
1.0
102
RTVSPost2010PropOp39
 70
     0
102
RTVSPost2010Prop40
 90
        0
102
RTVSPost2010PropOp40
 70
     0
102
RTVSPost2010Prop41ColorIndex
 90
       18
102
RTVSPost2010Prop41ColorRGB
 90
        0
102
RTVSPost2010PropOp41
 70
     0
102
RTVSPost2010Prop42
 90
       50
102
RTVSPost2010PropOp42
 70
     0
102
RTVSPost2010Prop43
 90
        3
102
RTVSPost2010PropOp43
 70
     0
102
RTVSPost2010Prop44ColorIndex
 90
        5
102
RTVSPost2010Prop44ColorRGB
 90
      255
102
RTVSPost2010PropOp44
 70
     0
102
RTVSPost2010Prop45
280
     0
102
RTVSPost2010PropOp45
 70
     0
102
RTVSPost2010Prop46
 90
       50
102
RTVSPost2010PropOp46
 70
     0
102
RTVSPost2010Prop47
 90
       50
102
RTVSPost2010PropOp47
 70
     0
102
RTVSPost2010Prop48
 90
       50
102
RTVSPost2010PropOp48
 70
     0
102
RTVSPost2010Prop49
280
     0
102
RTVSPost2010PropOp49
 70
     0
102
RTVSPost2010Prop50
 90
       50
102
RTVSPost2010PropOp50
 70
     0
102
RTVSPost2010Prop51ColorIndex
 90
      256
102
RTVSPost2010Prop51ColorRGB
 90
-16777216
102
RTVSPost2010PropOp51
 70
     0
102
RTVSPost2010Prop52
140
1.0
102
RTVSPost2010PropOp52
 70
     0
102
RTVSPost2010Prop53
 90
        2
102
RTVSPost2010PropOp53
 70
     0
102
RTVSPost2010Prop54
  1
strokes_ogs.tif
102
RTVSPost2010PropOp54
 70
     0
102
RTVSPost2010Prop55
280
     0
102
RTVSPost2010PropOp55
 70
     0
102
RTVSPost2010Prop56
140
1.0
102
RTVSPost2010PropOp56
 70
     0
102
RTVSPost2010Prop57
140
1.0
102
RTVSPost2010PropOp57
 70
     0
  0
XRECORD
  5
3ED
102
{ACAD_REACTORS
330
3EC
102
}
330
3EC
100
AcDbXrecord
280
     1
102
RTVSPost2010Prop28
280
     0
102
RTVSPost2010PropOp28
 70
     1
102
RTVSPost2010Prop29
280
     1
102
RTVSPost2010PropOp29
 70
     1
102
RTVSPost2010Prop30
280
     1
102
RTVSPost2010PropOp30
 70
     1
102
RTVSPost2010Prop31
280
     0
102
RTVSPost2010PropOp31
 70
     1
102
RTVSPost2010Prop32
280
     0
102
RTVSPost2010PropOp32
 70
     1
102
RTVSPost2010Prop33
280
     0
102
RTVSPost2010PropOp33
 70
     1
102
RTVSPost2010Prop34
280
     0
102
RTVSPost2010PropOp34
 70
     1
102
RTVSPost2010Prop35
280
     0
102
RTVSPost2010PropOp35
 70
     1
102
RTVSPost2010Prop36
280
     0
102
RTVSPost2010PropOp36
 70
     1
102
RTVSPost2010Prop37
 90
       50
102
RTVSPost2010PropOp37
 70
     1
102
RTVSPost2010Prop38
140
0.0
102
RTVSPost2010PropOp38
 70
     1
102
RTVSPost2010Prop39
140
1.0
102
RTVSPost2010PropOp39
 70
     1
102
RTVSPost2010Prop40
 90
        0
102
RTVSPost2010PropOp40
 70
     1
102
RTVSPost2010Prop41ColorIndex
 90
       18
102
RTVSPost2010Prop41ColorRGB
 90
        0
102
RTVSPost2010PropOp41
 70
     1
102
RTVSPost2010Prop42
 90
       50
102
RTVSPost2010PropOp42
 70
     1
102
RTVSPost2010Prop43
 90
        3
102
RTVSPost2010PropOp43
 70
     1
102
RTVSPost2010Prop44ColorIndex
 90
        5
102
RTVSPost2010Prop44ColorRGB
 90
      255
102
RTVSPost2010PropOp44
 70
     1
102
RTVSPost2010Prop45
280
     0
102
RTVSPost2010PropOp45
 70
     1
102
RTVSPost2010Prop46
 90
       50
102
RTVSPost2010PropOp46
 70
     1
102
RTVSPost2010Prop47
 90
       50
102
RTVSPost2010PropOp47
 70
     1
102
RTVSPost2010Prop48
 90
       50
102
RTVSPost2010PropOp48
 70
     1
102
RTVSPost2010Prop49
280
     0
102
RTVSPost2010PropOp49
 70
     1
102
RTVSPost2010Prop50
 90
       50
102
RTVSPost2010PropOp50
 70
     1
102
RTVSPost2010Prop51ColorIndex
 90
      256
102
RTVSPost2010Prop51ColorRGB
 90
-16777216
102
RTVSPost2010PropOp51
 70
     0
102
RTVSPost2010Prop52
140
1.0
102
RTVSPost2010PropOp52
 70
     0
102
RTVSPost2010Prop53
 90
        2
102
RTVSPost2010PropOp53
 70
     1
102
RTVSPost2010Prop54
  1
strokes_ogs.tif
102
RTVSPost2010PropOp54
 70
     1
102
RTVSPost2010Prop55
280
     0
102
RTVSPost2010PropOp55
 70
     1
102
RTVSPost2010Prop56
140
1.0
102
RTVSPost2010PropOp56
 70
     1
102
RTVSPost2010Prop57
140
1.0
102
RTVSPost2010PropOp57
 70
     1
  0
XRECORD
  5
3D1
102
{ACAD_REACTORS
330
3D0
102
}
330
3D0
100
AcDbXrecord
280
     1
102
RTVSPost2010Prop28
280
     0
102
RTVSPost2010PropOp28
 70
     1
102
RTVSPost2010Prop29
280
     1
102
RTVSPost2010PropOp29
 70
     1
102
RTVSPost2010Prop30
280
     1
102
RTVSPost2010PropOp30
 70
     1
102
RTVSPost2010Prop31
280
     0
102
RTVSPost2010PropOp31
 70
     1
102
RTVSPost2010Prop32
280
     0
102
RTVSPost2010PropOp32
 70
     1
102
RTVSPost2010Prop33
280
     0
102
RTVSPost2010PropOp33
 70
     1
102
RTVSPost2010Prop34
280
     0
102
RTVSPost2010PropOp34
 70
     1
102
RTVSPost2010Prop35
280
     0
102
RTVSPost2010PropOp35
 70
     1
102
RTVSPost2010Prop36
280
     0
102
RTVSPost2010PropOp36
 70
     1
102
RTVSPost2010Prop37
 90
       50
102
RTVSPost2010PropOp37
 70
     1
102
RTVSPost2010Prop38
140
0.0
102
RTVSPost2010PropOp38
 70
     1
102
RTVSPost2010Prop39
140
1.0
102
RTVSPost2010PropOp39
 70
     1
102
RTVSPost2010Prop40
 90
        0
102
RTVSPost2010PropOp40
 70
     1
102
RTVSPost2010Prop41ColorIndex
 90
       18
102
RTVSPost2010Prop41ColorRGB
 90
        0
102
RTVSPost2010PropOp41
 70
     1
102
RTVSPost2010Prop42
 90
       50
102
RTVSPost2010PropOp42
 70
     1
102
RTVSPost2010Prop43
 90
        3
102
RTVSPost2010PropOp43
 70
     1
102
RTVSPost2010Prop44ColorIndex
 90
        5
102
RTVSPost2010Prop44ColorRGB
 90
      255
102
RTVSPost2010PropOp44
 70
     1
102
RTVSPost2010Prop45
280
     0
102
RTVSPost2010PropOp45
 70
     1
102
RTVSPost2010Prop46
 90
       50
102
RTVSPost2010PropOp46
 70
     1
102
RTVSPost2010Prop47
 90
       50
102
RTVSPost2010PropOp47
 70
     1
102
RTVSPost2010Prop48
 90
       50
102
RTVSPost2010PropOp48
 70
     1
102
RTVSPost2010Prop49
280
     0
102
RTVSPost2010PropOp49
 70
     1
102
RTVSPost2010Prop50
 90
       50
102
RTVSPost2010PropOp50
 70
     1
102
RTVSPost2010Prop51ColorIndex
 90
      256
102
RTVSPost2010Prop51ColorRGB
 90
-16777216
102
RTVSPost2010PropOp51
 70
     0
102
RTVSPost2010Prop52
140
1.0
102
RTVSPost2010PropOp52
 70
     0
102
RTVSPost2010Prop53
 90
        2
102
RTVSPost2010PropOp53
 70
     1
102
RTVSPost2010Prop54
  1
strokes_ogs.tif
102
RTVSPost2010PropOp54
 70
     1
102
RTVSPost2010Prop55
280
     0
102
RTVSPost2010PropOp55
 70
     1
102
RTVSPost2010Prop56
140
1.0
102
RTVSPost2010PropOp56
 70
     1
102
RTVSPost2010Prop57
140
1.0
102
RTVSPost2010PropOp57
 70
     1
  0
XRECORD
  5
3D3
102
{ACAD_REACTORS
330
3D2
102
}
330
3D2
100
AcDbXrecord
280
     1
102
RTVSPost2010Prop28
280
     0
102
RTVSPost2010PropOp28
 70
     1
102
RTVSPost2010Prop29
280
     1
102
RTVSPost2010PropOp29
 70
     1
102
RTVSPost2010Prop30
280
     1
102
RTVSPost2010PropOp30
 70
     1
102
RTVSPost2010Prop31
280
     0
102
RTVSPost2010PropOp31
 70
     1
102
RTVSPost2010Prop32
280
     0
102
RTVSPost2010PropOp32
 70
     1
102
RTVSPost2010Prop33
280
     0
102
RTVSPost2010PropOp33
 70
     1
102
RTVSPost2010Prop34
280
     0
102
RTVSPost2010PropOp34
 70
     1
102
RTVSPost2010Prop35
280
     0
102
RTVSPost2010PropOp35
 70
     1
102
RTVSPost2010Prop36
280
     0
102
RTVSPost2010PropOp36
 70
     1
102
RTVSPost2010Prop37
 90
       50
102
RTVSPost2010PropOp37
 70
     1
102
RTVSPost2010Prop38
140
0.0
102
RTVSPost2010PropOp38
 70
     1
102
RTVSPost2010Prop39
140
1.0
102
RTVSPost2010PropOp39
 70
     1
102
RTVSPost2010Prop40
 90
        0
102
RTVSPost2010PropOp40
 70
     1
102
RTVSPost2010Prop41ColorIndex
 90
       18
102
RTVSPost2010Prop41ColorRGB
 90
        0
102
RTVSPost2010PropOp41
 70
     1
102
RTVSPost2010Prop42
 90
       50
102
RTVSPost2010PropOp42
 70
     1
102
RTVSPost2010Prop43
 90
        3
102
RTVSPost2010PropOp43
 70
     1
102
RTVSPost2010Prop44ColorIndex
 90
        5
102
RTVSPost2010Prop44ColorRGB
 90
      255
102
RTVSPost2010PropOp44
 70
     1
102
RTVSPost2010Prop45
280
     0
102
RTVSPost2010PropOp45
 70
     1
102
RTVSPost2010Prop46
 90
       50
102
RTVSPost2010PropOp46
 70
     1
102
RTVSPost2010Prop47
 90
       50
102
RTVSPost2010PropOp47
 70
     1
102
RTVSPost2010Prop48
 90
       50
102
RTVSPost2010PropOp48
 70
     1
102
RTVSPost2010Prop49
280
     0
102
RTVSPost2010PropOp49
 70
     1
102
RTVSPost2010Prop50
 90
       50
102
RTVSPost2010PropOp50
 70
     1
102
RTVSPost2010Prop51ColorIndex
 90
      256
102
RTVSPost2010Prop51ColorRGB
 90
-16777216
102
RTVSPost2010PropOp51
 70
     0
102
RTVSPost2010Prop52
140
1.0
102
RTVSPost2010PropOp52
 70
     0
102
RTVSPost2010Prop53
 90
        2
102
RTVSPost2010PropOp53
 70
     1
102
RTVSPost2010Prop54
  1
strokes_ogs.tif
102
RTVSPost2010PropOp54
 70
     1
102
RTVSPost2010Prop55
280
     0
102
RTVSPost2010PropOp55
 70
     1
102
RTVSPost2010Prop56
140
1.0
102
RTVSPost2010PropOp56
 70
     1
102
RTVSPost2010Prop57
140
1.0
102
RTVSPost2010PropOp57
 70
     1
  0
XRECORD
  5
3D5
102
{ACAD_REACTORS
330
3D4
102
}
330
3D4
100
AcDbXrecord
280
     1
102
RTVSPost2010Prop28
280
     0
102
RTVSPost2010PropOp28
 70
     1
102
RTVSPost2010Prop29
280
     1
102
RTVSPost2010PropOp29
 70
     1
102
RTVSPost2010Prop30
280
     1
102
RTVSPost2010PropOp30
 70
     1
102
RTVSPost2010Prop31
280
     0
102
RTVSPost2010PropOp31
 70
     1
102
RTVSPost2010Prop32
280
     0
102
RTVSPost2010PropOp32
 70
     1
102
RTVSPost2010Prop33
280
     0
102
RTVSPost2010PropOp33
 70
     1
102
RTVSPost2010Prop34
280
     0
102
RTVSPost2010PropOp34
 70
     1
102
RTVSPost2010Prop35
280
     0
102
RTVSPost2010PropOp35
 70
     1
102
RTVSPost2010Prop36
280
     0
102
RTVSPost2010PropOp36
 70
     1
102
RTVSPost2010Prop37
 90
       50
102
RTVSPost2010PropOp37
 70
     1
102
RTVSPost2010Prop38
140
0.0
102
RTVSPost2010PropOp38
 70
     1
102
RTVSPost2010Prop39
140
1.0
102
RTVSPost2010PropOp39
 70
     1
102
RTVSPost2010Prop40
 90
        0
102
RTVSPost2010PropOp40
 70
     1
102
RTVSPost2010Prop41ColorIndex
 90
       18
102
RTVSPost2010Prop41ColorRGB
 90
        0
102
RTVSPost2010PropOp41
 70
     1
102
RTVSPost2010Prop42
 90
       50
102
RTVSPost2010PropOp42
 70
     1
102
RTVSPost2010Prop43
 90
        3
102
RTVSPost2010PropOp43
 70
     1
102
RTVSPost2010Prop44ColorIndex
 90
        5
102
RTVSPost2010Prop44ColorRGB
 90
      255
102
RTVSPost2010PropOp44
 70
     1
102
RTVSPost2010Prop45
280
     0
102
RTVSPost2010PropOp45
 70
     1
102
RTVSPost2010Prop46
 90
       50
102
RTVSPost2010PropOp46
 70
     1
102
RTVSPost2010Prop47
 90
       50
102
RTVSPost2010PropOp47
 70
     1
102
RTVSPost2010Prop48
 90
       50
102
RTVSPost2010PropOp48
 70
     1
102
RTVSPost2010Prop49
280
     0
102
RTVSPost2010PropOp49
 70
     1
102
RTVSPost2010Prop50
 90
       50
102
RTVSPost2010PropOp50
 70
     1
102
RTVSPost2010Prop51ColorIndex
 90
      256
102
RTVSPost2010Prop51ColorRGB
 90
-16777216
102
RTVSPost2010PropOp51
 70
     0
102
RTVSPost2010Prop52
140
1.0
102
RTVSPost2010PropOp52
 70
     0
102
RTVSPost2010Prop53
 90
        2
102
RTVSPost2010PropOp53
 70
     1
102
RTVSPost2010Prop54
  1
strokes_ogs.tif
102
RTVSPost2010PropOp54
 70
     1
102
RTVSPost2010Prop55
280
     0
102
RTVSPost2010PropOp55
 70
     1
102
RTVSPost2010Prop56
140
1.0
102
RTVSPost2010PropOp56
 70
     1
102
RTVSPost2010Prop57
140
1.0
102
RTVSPost2010PropOp57
 70
     1
  0
XRECORD
  5
3D7
102
{ACAD_REACTORS
330
3D6
102
}
330
3D6
100
AcDbXrecord
280
     1
102
RTVSPost2010Prop28
280
     0
102
RTVSPost2010PropOp28
 70
     1
102
RTVSPost2010Prop29
280
     1
102
RTVSPost2010PropOp29
 70
     1
102
RTVSPost2010Prop30
280
     1
102
RTVSPost2010PropOp30
 70
     1
102
RTVSPost2010Prop31
280
     0
102
RTVSPost2010PropOp31
 70
     1
102
RTVSPost2010Prop32
280
     0
102
RTVSPost2010PropOp32
 70
     1
102
RTVSPost2010Prop33
280
     0
102
RTVSPost2010PropOp33
 70
     1
102
RTVSPost2010Prop34
280
     0
102
RTVSPost2010PropOp34
 70
     1
102
RTVSPost2010Prop35
280
     0
102
RTVSPost2010PropOp35
 70
     1
102
RTVSPost2010Prop36
280
     0
102
RTVSPost2010PropOp36
 70
     1
102
RTVSPost2010Prop37
 90
       50
102
RTVSPost2010PropOp37
 70
     1
102
RTVSPost2010Prop38
140
0.0
102
RTVSPost2010PropOp38
 70
     1
102
RTVSPost2010Prop39
140
1.0
102
RTVSPost2010PropOp39
 70
     1
102
RTVSPost2010Prop40
 90
        0
102
RTVSPost2010PropOp40
 70
     1
102
RTVSPost2010Prop41ColorIndex
 90
       18
102
RTVSPost2010Prop41ColorRGB
 90
        0
102
RTVSPost2010PropOp41
 70
     1
102
RTVSPost2010Prop42
 90
       50
102
RTVSPost2010PropOp42
 70
     1
102
RTVSPost2010Prop43
 90
        3
102
RTVSPost2010PropOp43
 70
     1
102
RTVSPost2010Prop44ColorIndex
 90
        5
102
RTVSPost2010Prop44ColorRGB
 90
      255
102
RTVSPost2010PropOp44
 70
     1
102
RTVSPost2010Prop45
280
     0
102
RTVSPost2010PropOp45
 70
     1
102
RTVSPost2010Prop46
 90
       50
102
RTVSPost2010PropOp46
 70
     1
102
RTVSPost2010Prop47
 90
       50
102
RTVSPost2010PropOp47
 70
     1
102
RTVSPost2010Prop48
 90
       50
102
RTVSPost2010PropOp48
 70
     1
102
RTVSPost2010Prop49
280
     0
102
RTVSPost2010PropOp49
 70
     1
102
RTVSPost2010Prop50
 90
       50
102
RTVSPost2010PropOp50
 70
     1
102
RTVSPost2010Prop51ColorIndex
 90
      256
102
RTVSPost2010Prop51ColorRGB
 90
-16777216
102
RTVSPost2010PropOp51
 70
     0
102
RTVSPost2010Prop52
140
1.0
102
RTVSPost2010PropOp52
 70
     0
102
RTVSPost2010Prop53
 90
        2
102
RTVSPost2010PropOp53
 70
     1
102
RTVSPost2010Prop54
  1
strokes_ogs.tif
102
RTVSPost2010PropOp54
 70
     1
102
RTVSPost2010Prop55
280
     0
102
RTVSPost2010PropOp55
 70
     1
102
RTVSPost2010Prop56
140
1.0
102
RTVSPost2010PropOp56
 70
     1
102
RTVSPost2010Prop57
140
1.0
102
RTVSPost2010PropOp57
 70
     1
  0
XRECORD
  5
3DD
102
{ACAD_REACTORS
330
3DC
102
}
330
3DC
100
AcDbXrecord
280
     1
102
RTVSPost2010Prop28
280
     0
102
RTVSPost2010PropOp28
 70
     1
102
RTVSPost2010Prop29
280
     1
102
RTVSPost2010PropOp29
 70
     1
102
RTVSPost2010Prop30
280
     1
102
RTVSPost2010PropOp30
 70
     1
102
RTVSPost2010Prop31
280
     0
102
RTVSPost2010PropOp31
 70
     1
102
RTVSPost2010Prop32
280
     0
102
RTVSPost2010PropOp32
 70
     1
102
RTVSPost2010Prop33
280
     0
102
RTVSPost2010PropOp33
 70
     1
102
RTVSPost2010Prop34
280
     0
102
RTVSPost2010PropOp34
 70
     1
102
RTVSPost2010Prop35
280
     0
102
RTVSPost2010PropOp35
 70
     1
102
RTVSPost2010Prop36
280
     0
102
RTVSPost2010PropOp36
 70
     1
102
RTVSPost2010Prop37
 90
       50
102
RTVSPost2010PropOp37
 70
     1
102
RTVSPost2010Prop38
140
0.0
102
RTVSPost2010PropOp38
 70
     1
102
RTVSPost2010Prop39
140
1.0
102
RTVSPost2010PropOp39
 70
     1
102
RTVSPost2010Prop40
 90
        0
102
RTVSPost2010PropOp40
 70
     1
102
RTVSPost2010Prop41ColorIndex
 90
       18
102
RTVSPost2010Prop41ColorRGB
 90
        0
102
RTVSPost2010PropOp41
 70
     1
102
RTVSPost2010Prop42
 90
       50
102
RTVSPost2010PropOp42
 70
     1
102
RTVSPost2010Prop43
 90
        3
102
RTVSPost2010PropOp43
 70
     1
102
RTVSPost2010Prop44ColorIndex
 90
        5
102
RTVSPost2010Prop44ColorRGB
 90
      255
102
RTVSPost2010PropOp44
 70
     1
102
RTVSPost2010Prop45
280
     0
102
RTVSPost2010PropOp45
 70
     1
102
RTVSPost2010Prop46
 90
       50
102
RTVSPost2010PropOp46
 70
     1
102
RTVSPost2010Prop47
 90
       50
102
RTVSPost2010PropOp47
 70
     1
102
RTVSPost2010Prop48
 90
       50
102
RTVSPost2010PropOp48
 70
     1
102
RTVSPost2010Prop49
280
     0
102
RTVSPost2010PropOp49
 70
     1
102
RTVSPost2010Prop50
 90
       50
102
RTVSPost2010PropOp50
 70
     1
102
RTVSPost2010Prop51ColorIndex
 90
      256
102
RTVSPost2010Prop51ColorRGB
 90
-16777216
102
RTVSPost2010PropOp51
 70
     0
102
RTVSPost2010Prop52
140
1.0
102
RTVSPost2010PropOp52
 70
     0
102
RTVSPost2010Prop53
 90
        2
102
RTVSPost2010PropOp53
 70
     1
102
RTVSPost2010Prop54
  1
strokes_ogs.tif
102
RTVSPost2010PropOp54
 70
     1
102
RTVSPost2010Prop55
280
     0
102
RTVSPost2010PropOp55
 70
     1
102
RTVSPost2010Prop56
140
1.0
102
RTVSPost2010PropOp56
 70
     1
102
RTVSPost2010Prop57
140
1.0
102
RTVSPost2010PropOp57
 70
     1
  0
XRECORD
  5
3F1
102
{ACAD_REACTORS
330
3F0
102
}
330
3F0
100
AcDbXrecord
280
     1
102
RTVSPost2010Prop28
280
     0
102
RTVSPost2010PropOp28
 70
     0
102
RTVSPost2010Prop29
280
     1
102
RTVSPost2010PropOp29
 70
     0
102
RTVSPost2010Prop30
280
     1
102
RTVSPost2010PropOp30
 70
     0
102
RTVSPost2010Prop31
280
     0
102
RTVSPost2010PropOp31
 70
     0
102
RTVSPost2010Prop32
280
     0
102
RTVSPost2010PropOp32
 70
     0
102
RTVSPost2010Prop33
280
     0
102
RTVSPost2010PropOp33
 70
     0
102
RTVSPost2010Prop34
280
     0
102
RTVSPost2010PropOp34
 70
     0
102
RTVSPost2010Prop35
280
     0
102
RTVSPost2010PropOp35
 70
     0
102
RTVSPost2010Prop36
280
     0
102
RTVSPost2010PropOp36
 70
     0
102
RTVSPost2010Prop37
 90
       50
102
RTVSPost2010PropOp37
 70
     0
102
RTVSPost2010Prop38
140
0.0
102
RTVSPost2010PropOp38
 70
     0
102
RTVSPost2010Prop39
140
1.0
102
RTVSPost2010PropOp39
 70
     0
102
RTVSPost2010Prop40
 90
        0
102
RTVSPost2010PropOp40
 70
     0
102
RTVSPost2010Prop41ColorIndex
 90
       18
102
RTVSPost2010Prop41ColorRGB
 90
        0
102
RTVSPost2010PropOp41
 70
     0
102
RTVSPost2010Prop42
 90
       50
102
RTVSPost2010PropOp42
 70
     0
102
RTVSPost2010Prop43
 90
        3
102
RTVSPost2010PropOp43
 70
     0
102
RTVSPost2010Prop44ColorIndex
 90
        5
102
RTVSPost2010Prop44ColorRGB
 90
      255
102
RTVSPost2010PropOp44
 70
     0
102
RTVSPost2010Prop45
280
     0
102
RTVSPost2010PropOp45
 70
     0
102
RTVSPost2010Prop46
 90
       50
102
RTVSPost2010PropOp46
 70
     0
102
RTVSPost2010Prop47
 90
       50
102
RTVSPost2010PropOp47
 70
     0
102
RTVSPost2010Prop48
 90
       50
102
RTVSPost2010PropOp48
 70
     0
102
RTVSPost2010Prop49
280
     0
102
RTVSPost2010PropOp49
 70
     0
102
RTVSPost2010Prop50
 90
       50
102
RTVSPost2010PropOp50
 70
     0
102
RTVSPost2010Prop51ColorIndex
 90
      256
102
RTVSPost2010Prop51ColorRGB
 90
-16777216
102
RTVSPost2010PropOp51
 70
     0
102
RTVSPost2010Prop52
140
1.0
102
RTVSPost2010PropOp52
 70
     0
102
RTVSPost2010Prop53
 90
        2
102
RTVSPost2010PropOp53
 70
     0
102
RTVSPost2010Prop54
  1
strokes_ogs.tif
102
RTVSPost2010PropOp54
 70
     0
102
RTVSPost2010Prop55
280
     0
102
RTVSPost2010PropOp55
 70
     0
102
RTVSPost2010Prop56
140
1.0
102
RTVSPost2010PropOp56
 70
     0
102
RTVSPost2010Prop57
140
1.0
102
RTVSPost2010PropOp57
 70
     0
  0
XRECORD
  5
3EB
102
{ACAD_REACTORS
330
3EA
102
}
330
3EA
100
AcDbXrecord
280
     1
102
RTVSPost2010Prop28
280
     0
102
RTVSPost2010PropOp28
 70
     1
102
RTVSPost2010Prop29
280
     1
102
RTVSPost2010PropOp29
 70
     1
102
RTVSPost2010Prop30
280
     1
102
RTVSPost2010PropOp30
 70
     1
102
RTVSPost2010Prop31
280
     0
102
RTVSPost2010PropOp31
 70
     1
102
RTVSPost2010Prop32
280
     0
102
RTVSPost2010PropOp32
 70
     1
102
RTVSPost2010Prop33
280
     0
102
RTVSPost2010PropOp33
 70
     1
102
RTVSPost2010Prop34
280
     0
102
RTVSPost2010PropOp34
 70
     1
102
RTVSPost2010Prop35
280
     0
102
RTVSPost2010PropOp35
 70
     1
102
RTVSPost2010Prop36
280
     0
102
RTVSPost2010PropOp36
 70
     1
102
RTVSPost2010Prop37
 90
       50
102
RTVSPost2010PropOp37
 70
     1
102
RTVSPost2010Prop38
140
0.0
102
RTVSPost2010PropOp38
 70
     1
102
RTVSPost2010Prop39
140
1.0
102
RTVSPost2010PropOp39
 70
     1
102
RTVSPost2010Prop40
 90
        0
102
RTVSPost2010PropOp40
 70
     1
102
RTVSPost2010Prop41ColorIndex
 90
       18
102
RTVSPost2010Prop41ColorRGB
 90
        0
102
RTVSPost2010PropOp41
 70
     1
102
RTVSPost2010Prop42
 90
       50
102
RTVSPost2010PropOp42
 70
     1
102
RTVSPost2010Prop43
 90
        3
102
RTVSPost2010PropOp43
 70
     1
102
RTVSPost2010Prop44ColorIndex
 90
        5
102
RTVSPost2010Prop44ColorRGB
 90
      255
102
RTVSPost2010PropOp44
 70
     1
102
RTVSPost2010Prop45
280
     0
102
RTVSPost2010PropOp45
 70
     1
102
RTVSPost2010Prop46
 90
       50
102
RTVSPost2010PropOp46
 70
     1
102
RTVSPost2010Prop47
 90
       50
102
RTVSPost2010PropOp47
 70
     1
102
RTVSPost2010Prop48
 90
       50
102
RTVSPost2010PropOp48
 70
     1
102
RTVSPost2010Prop49
280
     0
102
RTVSPost2010PropOp49
 70
     1
102
RTVSPost2010Prop50
 90
       50
102
RTVSPost2010PropOp50
 70
     1
102
RTVSPost2010Prop51ColorIndex
 90
      256
102
RTVSPost2010Prop51ColorRGB
 90
-16777216
102
RTVSPost2010PropOp51
 70
     0
102
RTVSPost2010Prop52
140
1.0
102
RTVSPost2010PropOp52
 70
     0
102
RTVSPost2010Prop53
 90
        2
102
RTVSPost2010PropOp53
 70
     1
102
RTVSPost2010Prop54
  1
strokes_ogs.tif
102
RTVSPost2010PropOp54
 70
     1
102
RTVSPost2010Prop55
280
     0
102
RTVSPost2010PropOp55
 70
     1
102
RTVSPost2010Prop56
140
1.0
102
RTVSPost2010PropOp56
 70
     1
102
RTVSPost2010Prop57
140
1.0
102
RTVSPost2010PropOp57
 70
     1
  0
XRECORD
  5
3F3
102
{ACAD_REACTORS
330
3F2
102
}
330
3F2
100
AcDbXrecord
280
     1
102
RTVSPost2010Prop28
280
     0
102
RTVSPost2010PropOp28
 70
     0
102
RTVSPost2010Prop29
280
     1
102
RTVSPost2010PropOp29
 70
     0
102
RTVSPost2010Prop30
280
     1
102
RTVSPost2010PropOp30
 70
     0
102
RTVSPost2010Prop31
280
     0
102
RTVSPost2010PropOp31
 70
     0
102
RTVSPost2010Prop32
280
     0
102
RTVSPost2010PropOp32
 70
     0
102
RTVSPost2010Prop33
280
     0
102
RTVSPost2010PropOp33
 70
     0
102
RTVSPost2010Prop34
280
     0
102
RTVSPost2010PropOp34
 70
     0
102
RTVSPost2010Prop35
280
     0
102
RTVSPost2010PropOp35
 70
     0
102
RTVSPost2010Prop36
280
     0
102
RTVSPost2010PropOp36
 70
     0
102
RTVSPost2010Prop37
 90
       50
102
RTVSPost2010PropOp37
 70
     0
102
RTVSPost2010Prop38
140
0.0
102
RTVSPost2010PropOp38
 70
     0
102
RTVSPost2010Prop39
140
1.0
102
RTVSPost2010PropOp39
 70
     0
102
RTVSPost2010Prop40
 90
        0
102
RTVSPost2010PropOp40
 70
     0
102
RTVSPost2010Prop41ColorIndex
 90
       18
102
RTVSPost2010Prop41ColorRGB
 90
        0
102
RTVSPost2010PropOp41
 70
     0
102
RTVSPost2010Prop42
 90
       50
102
RTVSPost2010PropOp42
 70
     0
102
RTVSPost2010Prop43
 90
        3
102
RTVSPost2010PropOp43
 70
     0
102
RTVSPost2010Prop44ColorIndex
 90
        5
102
RTVSPost2010Prop44ColorRGB
 90
      255
102
RTVSPost2010PropOp44
 70
     0
102
RTVSPost2010Prop45
280
     0
102
RTVSPost2010PropOp45
 70
     0
102
RTVSPost2010Prop46
 90
       50
102
RTVSPost2010PropOp46
 70
     0
102
RTVSPost2010Prop47
 90
       50
102
RTVSPost2010PropOp47
 70
     0
102
RTVSPost2010Prop48
 90
       50
102
RTVSPost2010PropOp48
 70
     0
102
RTVSPost2010Prop49
280
     0
102
RTVSPost2010PropOp49
 70
     0
102
RTVSPost2010Prop50
 90
       50
102
RTVSPost2010PropOp50
 70
     0
102
RTVSPost2010Prop51ColorIndex
 90
      256
102
RTVSPost2010Prop51ColorRGB
 90
-16777216
102
RTVSPost2010PropOp51
 70
     0
102
RTVSPost2010Prop52
140
1.0
102
RTVSPost2010PropOp52
 70
     0
102
RTVSPost2010Prop53
 90
        2
102
RTVSPost2010PropOp53
 70
     0
102
RTVSPost2010Prop54
  1
strokes_ogs.tif
102
RTVSPost2010PropOp54
 70
     0
102
RTVSPost2010Prop55
280
     0
102
RTVSPost2010PropOp55
 70
     0
102
RTVSPost2010Prop56
140
1.0
102
RTVSPost2010PropOp56
 70
     0
102
RTVSPost2010Prop57
140
1.0
102
RTVSPost2010PropOp57
 70
     0
  0
XRECORD
  5
3E1
102
{ACAD_REACTORS
330
3E0
102
}
330
3E0
100
AcDbXrecord
280
     1
102
RTVSPost2010Prop28
280
     0
102
RTVSPost2010PropOp28
 70
     1
102
RTVSPost2010Prop29
280
     1
102
RTVSPost2010PropOp29
 70
     1
102
RTVSPost2010Prop30
280
     1
102
RTVSPost2010PropOp30
 70
     1
102
RTVSPost2010Prop31
280
     0
102
RTVSPost2010PropOp31
 70
     1
102
RTVSPost2010Prop32
280
     0
102
RTVSPost2010PropOp32
 70
     1
102
RTVSPost2010Prop33
280
     0
102
RTVSPost2010PropOp33
 70
     1
102
RTVSPost2010Prop34
280
     0
102
RTVSPost2010PropOp34
 70
     1
102
RTVSPost2010Prop35
280
     0
102
RTVSPost2010PropOp35
 70
     1
102
RTVSPost2010Prop36
280
     0
102
RTVSPost2010PropOp36
 70
     1
102
RTVSPost2010Prop37
 90
       50
102
RTVSPost2010PropOp37
 70
     1
102
RTVSPost2010Prop38
140
0.0
102
RTVSPost2010PropOp38
 70
     1
102
RTVSPost2010Prop39
140
1.0
102
RTVSPost2010PropOp39
 70
     1
102
RTVSPost2010Prop40
 90
        0
102
RTVSPost2010PropOp40
 70
     1
102
RTVSPost2010Prop41ColorIndex
 90
       18
102
RTVSPost2010Prop41ColorRGB
 90
        0
102
RTVSPost2010PropOp41
 70
     1
102
RTVSPost2010Prop42
 90
       50
102
RTVSPost2010PropOp42
 70
     1
102
RTVSPost2010Prop43
 90
        3
102
RTVSPost2010PropOp43
 70
     1
102
RTVSPost2010Prop44ColorIndex
 90
        5
102
RTVSPost2010Prop44ColorRGB
 90
      255
102
RTVSPost2010PropOp44
 70
     1
102
RTVSPost2010Prop45
280
     0
102
RTVSPost2010PropOp45
 70
     1
102
RTVSPost2010Prop46
 90
       50
102
RTVSPost2010PropOp46
 70
     1
102
RTVSPost2010Prop47
 90
       50
102
RTVSPost2010PropOp47
 70
     1
102
RTVSPost2010Prop48
 90
       50
102
RTVSPost2010PropOp48
 70
     1
102
RTVSPost2010Prop49
280
     0
102
RTVSPost2010PropOp49
 70
     1
102
RTVSPost2010Prop50
 90
       50
102
RTVSPost2010PropOp50
 70
     1
102
RTVSPost2010Prop51ColorIndex
 90
      256
102
RTVSPost2010Prop51ColorRGB
 90
-16777216
102
RTVSPost2010PropOp51
 70
     0
102
RTVSPost2010Prop52
140
1.0
102
RTVSPost2010PropOp52
 70
     0
102
RTVSPost2010Prop53
 90
        2
102
RTVSPost2010PropOp53
 70
     1
102
RTVSPost2010Prop54
  1
strokes_ogs.tif
102
RTVSPost2010PropOp54
 70
     1
102
RTVSPost2010Prop55
280
     0
102
RTVSPost2010PropOp55
 70
     1
102
RTVSPost2010Prop56
140
1.0
102
RTVSPost2010PropOp56
 70
     1
102
RTVSPost2010Prop57
140
1.0
102
RTVSPost2010PropOp57
 70
     1
  0
XRECORD
  5
3FF
102
{ACAD_REACTORS
330
3FE
102
}
330
3FE
100
AcDbXrecord
280
     1
102
RTVSPost2010Prop28
280
     0
102
RTVSPost2010PropOp28
 70
     1
102
RTVSPost2010Prop29
280
     1
102
RTVSPost2010PropOp29
 70
     1
102
RTVSPost2010Prop30
280
     1
102
RTVSPost2010PropOp30
 70
     1
102
RTVSPost2010Prop31
280
     0
102
RTVSPost2010PropOp31
 70
     1
102
RTVSPost2010Prop32
280
     0
102
RTVSPost2010PropOp32
 70
     1
102
RTVSPost2010Prop33
280
     0
102
RTVSPost2010PropOp33
 70
     1
102
RTVSPost2010Prop34
280
     0
102
RTVSPost2010PropOp34
 70
     1
102
RTVSPost2010Prop35
280
     0
102
RTVSPost2010PropOp35
 70
     1
102
RTVSPost2010Prop36
280
     0
102
RTVSPost2010PropOp36
 70
     1
102
RTVSPost2010Prop37
 90
       50
102
RTVSPost2010PropOp37
 70
     1
102
RTVSPost2010Prop38
140
0.0
102
RTVSPost2010PropOp38
 70
     1
102
RTVSPost2010Prop39
140
1.0
102
RTVSPost2010PropOp39
 70
     1
102
RTVSPost2010Prop40
 90
        0
102
RTVSPost2010PropOp40
 70
     1
102
RTVSPost2010Prop41ColorIndex
 90
       18
102
RTVSPost2010Prop41ColorRGB
 90
        0
102
RTVSPost2010PropOp41
 70
     1
102
RTVSPost2010Prop42
 90
       50
102
RTVSPost2010PropOp42
 70
     1
102
RTVSPost2010Prop43
 90
        3
102
RTVSPost2010PropOp43
 70
     1
102
RTVSPost2010Prop44ColorIndex
 90
        5
102
RTVSPost2010Prop44ColorRGB
 90
      255
102
RTVSPost2010PropOp44
 70
     1
102
RTVSPost2010Prop45
280
     0
102
RTVSPost2010PropOp45
 70
     1
102
RTVSPost2010Prop46
 90
       50
102
RTVSPost2010PropOp46
 70
     1
102
RTVSPost2010Prop47
 90
       50
102
RTVSPost2010PropOp47
 70
     1
102
RTVSPost2010Prop48
 90
       50
102
RTVSPost2010PropOp48
 70
     1
102
RTVSPost2010Prop49
280
     0
102
RTVSPost2010PropOp49
 70
     1
102
RTVSPost2010Prop50
 90
       50
102
RTVSPost2010PropOp50
 70
     1
102
RTVSPost2010Prop51ColorIndex
 90
      256
102
RTVSPost2010Prop51ColorRGB
 90
-16777216
102
RTVSPost2010PropOp51
 70
     0
102
RTVSPost2010Prop52
140
1.0
102
RTVSPost2010PropOp52
 70
     0
102
RTVSPost2010Prop53
 90
        2
102
RTVSPost2010PropOp53
 70
     1
102
RTVSPost2010Prop54
  1
strokes_ogs.tif
102
RTVSPost2010PropOp54
 70
     1
102
RTVSPost2010Prop55
280
     0
102
RTVSPost2010PropOp55
 70
     1
102
RTVSPost2010Prop56
140
1.0
102
RTVSPost2010PropOp56
 70
     1
102
RTVSPost2010Prop57
140
1.0
102
RTVSPost2010PropOp57
 70
     1
  0
XRECORD
  5
3FD
102
{ACAD_REACTORS
330
3FC
102
}
330
3FC
100
AcDbXrecord
280
     1
102
RTVSPost2010Prop28
280
     0
102
RTVSPost2010PropOp28
 70
     1
102
RTVSPost2010Prop29
280
     1
102
RTVSPost2010PropOp29
 70
     1
102
RTVSPost2010Prop30
280
     1
102
RTVSPost2010PropOp30
 70
     1
102
RTVSPost2010Prop31
280
     0
102
RTVSPost2010PropOp31
 70
     1
102
RTVSPost2010Prop32
280
     0
102
RTVSPost2010PropOp32
 70
     1
102
RTVSPost2010Prop33
280
     0
102
RTVSPost2010PropOp33
 70
     1
102
RTVSPost2010Prop34
280
     0
102
RTVSPost2010PropOp34
 70
     1
102
RTVSPost2010Prop35
280
     0
102
RTVSPost2010PropOp35
 70
     1
102
RTVSPost2010Prop36
280
     0
102
RTVSPost2010PropOp36
 70
     1
102
RTVSPost2010Prop37
 90
       50
102
RTVSPost2010PropOp37
 70
     1
102
RTVSPost2010Prop38
140
0.0
102
RTVSPost2010PropOp38
 70
     1
102
RTVSPost2010Prop39
140
1.0
102
RTVSPost2010PropOp39
 70
     1
102
RTVSPost2010Prop40
 90
        0
102
RTVSPost2010PropOp40
 70
     1
102
RTVSPost2010Prop41ColorIndex
 90
       18
102
RTVSPost2010Prop41ColorRGB
 90
        0
102
RTVSPost2010PropOp41
 70
     1
102
RTVSPost2010Prop42
 90
       50
102
RTVSPost2010PropOp42
 70
     1
102
RTVSPost2010Prop43
 90
        3
102
RTVSPost2010PropOp43
 70
     1
102
RTVSPost2010Prop44ColorIndex
 90
        5
102
RTVSPost2010Prop44ColorRGB
 90
      255
102
RTVSPost2010PropOp44
 70
     1
102
RTVSPost2010Prop45
280
     0
102
RTVSPost2010PropOp45
 70
     1
102
RTVSPost2010Prop46
 90
       50
102
RTVSPost2010PropOp46
 70
     1
102
RTVSPost2010Prop47
 90
       50
102
RTVSPost2010PropOp47
 70
     1
102
RTVSPost2010Prop48
 90
       50
102
RTVSPost2010PropOp48
 70
     1
102
RTVSPost2010Prop49
280
     0
102
RTVSPost2010PropOp49
 70
     1
102
RTVSPost2010Prop50
 90
       50
102
RTVSPost2010PropOp50
 70
     1
102
RTVSPost2010Prop51ColorIndex
 90
      256
102
RTVSPost2010Prop51ColorRGB
 90
-16777216
102
RTVSPost2010PropOp51
 70
     0
102
RTVSPost2010Prop52
140
1.0
102
RTVSPost2010PropOp52
 70
     0
102
RTVSPost2010Prop53
 90
        2
102
RTVSPost2010PropOp53
 70
     1
102
RTVSPost2010Prop54
  1
strokes_ogs.tif
102
RTVSPost2010PropOp54
 70
     1
102
RTVSPost2010Prop55
280
     0
102
RTVSPost2010PropOp55
 70
     1
102
RTVSPost2010Prop56
140
1.0
102
RTVSPost2010PropOp56
 70
     1
102
RTVSPost2010Prop57
140
1.0
102
RTVSPost2010PropOp57
 70
     1
  0
XRECORD
  5
3F7
102
{ACAD_REACTORS
330
3F6
102
}
330
3F6
100
AcDbXrecord
280
     1
102
RTVSPost2010Prop28
280
     0
102
RTVSPost2010PropOp28
 70
     1
102
RTVSPost2010Prop29
280
     1
102
RTVSPost2010PropOp29
 70
     1
102
RTVSPost2010Prop30
280
     1
102
RTVSPost2010PropOp30
 70
     1
102
RTVSPost2010Prop31
280
     0
102
RTVSPost2010PropOp31
 70
     1
102
RTVSPost2010Prop32
280
     0
102
RTVSPost2010PropOp32
 70
     1
102
RTVSPost2010Prop33
280
     0
102
RTVSPost2010PropOp33
 70
     1
102
RTVSPost2010Prop34
280
     0
102
RTVSPost2010PropOp34
 70
     1
102
RTVSPost2010Prop35
280
     0
102
RTVSPost2010PropOp35
 70
     1
102
RTVSPost2010Prop36
280
     0
102
RTVSPost2010PropOp36
 70
     1
102
RTVSPost2010Prop37
 90
       50
102
RTVSPost2010PropOp37
 70
     1
102
RTVSPost2010Prop38
140
0.0
102
RTVSPost2010PropOp38
 70
     1
102
RTVSPost2010Prop39
140
1.0
102
RTVSPost2010PropOp39
 70
     1
102
RTVSPost2010Prop40
 90
        0
102
RTVSPost2010PropOp40
 70
     1
102
RTVSPost2010Prop41ColorIndex
 90
       18
102
RTVSPost2010Prop41ColorRGB
 90
        0
102
RTVSPost2010PropOp41
 70
     1
102
RTVSPost2010Prop42
 90
       50
102
RTVSPost2010PropOp42
 70
     1
102
RTVSPost2010Prop43
 90
        3
102
RTVSPost2010PropOp43
 70
     1
102
RTVSPost2010Prop44ColorIndex
 90
        5
102
RTVSPost2010Prop44ColorRGB
 90
      255
102
RTVSPost2010PropOp44
 70
     1
102
RTVSPost2010Prop45
280
     0
102
RTVSPost2010PropOp45
 70
     1
102
RTVSPost2010Prop46
 90
       50
102
RTVSPost2010PropOp46
 70
     1
102
RTVSPost2010Prop47
 90
       50
102
RTVSPost2010PropOp47
 70
     1
102
RTVSPost2010Prop48
 90
       50
102
RTVSPost2010PropOp48
 70
     1
102
RTVSPost2010Prop49
280
     0
102
RTVSPost2010PropOp49
 70
     1
102
RTVSPost2010Prop50
 90
       50
102
RTVSPost2010PropOp50
 70
     1
102
RTVSPost2010Prop51ColorIndex
 90
      256
102
RTVSPost2010Prop51ColorRGB
 90
-16777216
102
RTVSPost2010PropOp51
 70
     0
102
RTVSPost2010Prop52
140
1.0
102
RTVSPost2010PropOp52
 70
     0
102
RTVSPost2010Prop53
 90
        2
102
RTVSPost2010PropOp53
 70
     1
102
RTVSPost2010Prop54
  1
strokes_ogs.tif
102
RTVSPost2010PropOp54
 70
     1
102
RTVSPost2010Prop55
280
     0
102
RTVSPost2010PropOp55
 70
     1
102
RTVSPost2010Prop56
140
1.0
102
RTVSPost2010PropOp56
 70
     1
102
RTVSPost2010Prop57
140
1.0
102
RTVSPost2010PropOp57
 70
     1
  0
XRECORD
  5
3F9
102
{ACAD_REACTORS
330
3F8
102
}
330
3F8
100
AcDbXrecord
280
     1
102
RTVSPost2010Prop28
280
     0
102
RTVSPost2010PropOp28
 70
     1
102
RTVSPost2010Prop29
280
     1
102
RTVSPost2010PropOp29
 70
     1
102
RTVSPost2010Prop30
280
     1
102
RTVSPost2010PropOp30
 70
     1
102
RTVSPost2010Prop31
280
     0
102
RTVSPost2010PropOp31
 70
     1
102
RTVSPost2010Prop32
280
     0
102
RTVSPost2010PropOp32
 70
     1
102
RTVSPost2010Prop33
280
     0
102
RTVSPost2010PropOp33
 70
     1
102
RTVSPost2010Prop34
280
     0
102
RTVSPost2010PropOp34
 70
     1
102
RTVSPost2010Prop35
280
     0
102
RTVSPost2010PropOp35
 70
     1
102
RTVSPost2010Prop36
280
     0
102
RTVSPost2010PropOp36
 70
     1
102
RTVSPost2010Prop37
 90
       50
102
RTVSPost2010PropOp37
 70
     1
102
RTVSPost2010Prop38
140
0.0
102
RTVSPost2010PropOp38
 70
     1
102
RTVSPost2010Prop39
140
1.0
102
RTVSPost2010PropOp39
 70
     1
102
RTVSPost2010Prop40
 90
        0
102
RTVSPost2010PropOp40
 70
     1
102
RTVSPost2010Prop41ColorIndex
 90
       18
102
RTVSPost2010Prop41ColorRGB
 90
        0
102
RTVSPost2010PropOp41
 70
     1
102
RTVSPost2010Prop42
 90
       50
102
RTVSPost2010PropOp42
 70
     1
102
RTVSPost2010Prop43
 90
        3
102
RTVSPost2010PropOp43
 70
     1
102
RTVSPost2010Prop44ColorIndex
 90
        5
102
RTVSPost2010Prop44ColorRGB
 90
      255
102
RTVSPost2010PropOp44
 70
     1
102
RTVSPost2010Prop45
280
     0
102
RTVSPost2010PropOp45
 70
     1
102
RTVSPost2010Prop46
 90
       50
102
RTVSPost2010PropOp46
 70
     1
102
RTVSPost2010Prop47
 90
       50
102
RTVSPost2010PropOp47
 70
     1
102
RTVSPost2010Prop48
 90
       50
102
RTVSPost2010PropOp48
 70
     1
102
RTVSPost2010Prop49
280
     0
102
RTVSPost2010PropOp49
 70
     1
102
RTVSPost2010Prop50
 90
       50
102
RTVSPost2010PropOp50
 70
     1
102
RTVSPost2010Prop51ColorIndex
 90
      256
102
RTVSPost2010Prop51ColorRGB
 90
-16777216
102
RTVSPost2010PropOp51
 70
     0
102
RTVSPost2010Prop52
140
1.0
102
RTVSPost2010PropOp52
 70
     0
102
RTVSPost2010Prop53
 90
        2
102
RTVSPost2010PropOp53
 70
     1
102
RTVSPost2010Prop54
  1
strokes_ogs.tif
102
RTVSPost2010PropOp54
 70
     1
102
RTVSPost2010Prop55
280
     0
102
RTVSPost2010PropOp55
 70
     1
102
RTVSPost2010Prop56
140
1.0
102
RTVSPost2010PropOp56
 70
     1
102
RTVSPost2010Prop57
140
1.0
102
RTVSPost2010PropOp57
 70
     1
  0
XRECORD
  5
3E9
102
{ACAD_REACTORS
330
3E8
102
}
330
3E8
100
AcDbXrecord
280
     1
102
RTVSPost2010Prop28
280
     0
102
RTVSPost2010PropOp28
 70
     1
102
RTVSPost2010Prop29
280
     1
102
RTVSPost2010PropOp29
 70
     1
102
RTVSPost2010Prop30
280
     1
102
RTVSPost2010PropOp30
 70
     1
102
RTVSPost2010Prop31
280
     0
102
RTVSPost2010PropOp31
 70
     1
102
RTVSPost2010Prop32
280
     0
102
RTVSPost2010PropOp32
 70
     1
102
RTVSPost2010Prop33
280
     0
102
RTVSPost2010PropOp33
 70
     1
102
RTVSPost2010Prop34
280
     0
102
RTVSPost2010PropOp34
 70
     1
102
RTVSPost2010Prop35
280
     0
102
RTVSPost2010PropOp35
 70
     1
102
RTVSPost2010Prop36
280
     0
102
RTVSPost2010PropOp36
 70
     1
102
RTVSPost2010Prop37
 90
       50
102
RTVSPost2010PropOp37
 70
     1
102
RTVSPost2010Prop38
140
0.0
102
RTVSPost2010PropOp38
 70
     1
102
RTVSPost2010Prop39
140
1.0
102
RTVSPost2010PropOp39
 70
     1
102
RTVSPost2010Prop40
 90
        0
102
RTVSPost2010PropOp40
 70
     1
102
RTVSPost2010Prop41ColorIndex
 90
       18
102
RTVSPost2010Prop41ColorRGB
 90
        0
102
RTVSPost2010PropOp41
 70
     1
102
RTVSPost2010Prop42
 90
       50
102
RTVSPost2010PropOp42
 70
     1
102
RTVSPost2010Prop43
 90
        3
102
RTVSPost2010PropOp43
 70
     1
102
RTVSPost2010Prop44ColorIndex
 90
        5
102
RTVSPost2010Prop44ColorRGB
 90
      255
102
RTVSPost2010PropOp44
 70
     1
102
RTVSPost2010Prop45
280
     0
102
RTVSPost2010PropOp45
 70
     1
102
RTVSPost2010Prop46
 90
       50
102
RTVSPost2010PropOp46
 70
     1
102
RTVSPost2010Prop47
 90
       50
102
RTVSPost2010PropOp47
 70
     1
102
RTVSPost2010Prop48
 90
       50
102
RTVSPost2010PropOp48
 70
     1
102
RTVSPost2010Prop49
280
     0
102
RTVSPost2010PropOp49
 70
     1
102
RTVSPost2010Prop50
 90
       50
102
RTVSPost2010PropOp50
 70
     1
102
RTVSPost2010Prop51ColorIndex
 90
      256
102
RTVSPost2010Prop51ColorRGB
 90
-16777216
102
RTVSPost2010PropOp51
 70
     0
102
RTVSPost2010Prop52
140
1.0
102
RTVSPost2010PropOp52
 70
     0
102
RTVSPost2010Prop53
 90
        2
102
RTVSPost2010PropOp53
 70
     1
102
RTVSPost2010Prop54
  1
strokes_ogs.tif
102
RTVSPost2010PropOp54
 70
     1
102
RTVSPost2010Prop55
280
     0
102
RTVSPost2010PropOp55
 70
     1
102
RTVSPost2010Prop56
140
1.0
102
RTVSPost2010PropOp56
 70
     1
102
RTVSPost2010Prop57
140
1.0
102
RTVSPost2010PropOp57
 70
     1
  0
XRECORD
  5
3DB
102
{ACAD_REACTORS
330
3DA
102
}
330
3DA
100
AcDbXrecord
280
     1
102
RTVSPost2010Prop28
280
     0
102
RTVSPost2010PropOp28
 70
     1
102
RTVSPost2010Prop29
280
     1
102
RTVSPost2010PropOp29
 70
     1
102
RTVSPost2010Prop30
280
     1
102
RTVSPost2010PropOp30
 70
     1
102
RTVSPost2010Prop31
280
     0
102
RTVSPost2010PropOp31
 70
     1
102
RTVSPost2010Prop32
280
     0
102
RTVSPost2010PropOp32
 70
     1
102
RTVSPost2010Prop33
280
     0
102
RTVSPost2010PropOp33
 70
     1
102
RTVSPost2010Prop34
280
     0
102
RTVSPost2010PropOp34
 70
     1
102
RTVSPost2010Prop35
280
     0
102
RTVSPost2010PropOp35
 70
     1
102
RTVSPost2010Prop36
280
     0
102
RTVSPost2010PropOp36
 70
     1
102
RTVSPost2010Prop37
 90
       50
102
RTVSPost2010PropOp37
 70
     1
102
RTVSPost2010Prop38
140
0.0
102
RTVSPost2010PropOp38
 70
     1
102
RTVSPost2010Prop39
140
1.0
102
RTVSPost2010PropOp39
 70
     1
102
RTVSPost2010Prop40
 90
        0
102
RTVSPost2010PropOp40
 70
     1
102
RTVSPost2010Prop41ColorIndex
 90
       18
102
RTVSPost2010Prop41ColorRGB
 90
        0
102
RTVSPost2010PropOp41
 70
     1
102
RTVSPost2010Prop42
 90
       50
102
RTVSPost2010PropOp42
 70
     1
102
RTVSPost2010Prop43
 90
        3
102
RTVSPost2010PropOp43
 70
     1
102
RTVSPost2010Prop44ColorIndex
 90
        5
102
RTVSPost2010Prop44ColorRGB
 90
      255
102
RTVSPost2010PropOp44
 70
     1
102
RTVSPost2010Prop45
280
     0
102
RTVSPost2010PropOp45
 70
     1
102
RTVSPost2010Prop46
 90
       50
102
RTVSPost2010PropOp46
 70
     1
102
RTVSPost2010Prop47
 90
       50
102
RTVSPost2010PropOp47
 70
     1
102
RTVSPost2010Prop48
 90
       50
102
RTVSPost2010PropOp48
 70
     1
102
RTVSPost2010Prop49
280
     0
102
RTVSPost2010PropOp49
 70
     1
102
RTVSPost2010Prop50
 90
       50
102
RTVSPost2010PropOp50
 70
     1
102
RTVSPost2010Prop51ColorIndex
 90
      256
102
RTVSPost2010Prop51ColorRGB
 90
-16777216
102
RTVSPost2010PropOp51
 70
     0
102
RTVSPost2010Prop52
140
1.0
102
RTVSPost2010PropOp52
 70
     0
102
RTVSPost2010Prop53
 90
        2
102
RTVSPost2010PropOp53
 70
     1
102
RTVSPost2010Prop54
  1
strokes_ogs.tif
102
RTVSPost2010PropOp54
 70
     1
102
RTVSPost2010Prop55
280
     0
102
RTVSPost2010PropOp55
 70
     1
102
RTVSPost2010Prop56
140
1.0
102
RTVSPost2010PropOp56
 70
     1
102
RTVSPost2010Prop57
140
1.0
102
RTVSPost2010PropOp57
 70
     1
  0
XRECORD
  5
3FB
102
{ACAD_REACTORS
330
3FA
102
}
330
3FA
100
AcDbXrecord
280
     1
102
RTVSPost2010Prop28
280
     0
102
RTVSPost2010PropOp28
 70
     1
102
RTVSPost2010Prop29
280
     1
102
RTVSPost2010PropOp29
 70
     1
102
RTVSPost2010Prop30
280
     1
102
RTVSPost2010PropOp30
 70
     1
102
RTVSPost2010Prop31
280
     0
102
RTVSPost2010PropOp31
 70
     1
102
RTVSPost2010Prop32
280
     0
102
RTVSPost2010PropOp32
 70
     1
102
RTVSPost2010Prop33
280
     0
102
RTVSPost2010PropOp33
 70
     1
102
RTVSPost2010Prop34
280
     0
102
RTVSPost2010PropOp34
 70
     1
102
RTVSPost2010Prop35
280
     0
102
RTVSPost2010PropOp35
 70
     1
102
RTVSPost2010Prop36
280
     0
102
RTVSPost2010PropOp36
 70
     1
102
RTVSPost2010Prop37
 90
       50
102
RTVSPost2010PropOp37
 70
     1
102
RTVSPost2010Prop38
140
0.0
102
RTVSPost2010PropOp38
 70
     1
102
RTVSPost2010Prop39
140
1.0
102
RTVSPost2010PropOp39
 70
     1
102
RTVSPost2010Prop40
 90
        0
102
RTVSPost2010PropOp40
 70
     1
102
RTVSPost2010Prop41ColorIndex
 90
       18
102
RTVSPost2010Prop41ColorRGB
 90
        0
102
RTVSPost2010PropOp41
 70
     1
102
RTVSPost2010Prop42
 90
       50
102
RTVSPost2010PropOp42
 70
     1
102
RTVSPost2010Prop43
 90
        3
102
RTVSPost2010PropOp43
 70
     1
102
RTVSPost2010Prop44ColorIndex
 90
        5
102
RTVSPost2010Prop44ColorRGB
 90
      255
102
RTVSPost2010PropOp44
 70
     1
102
RTVSPost2010Prop45
280
     0
102
RTVSPost2010PropOp45
 70
     1
102
RTVSPost2010Prop46
 90
       50
102
RTVSPost2010PropOp46
 70
     1
102
RTVSPost2010Prop47
 90
       50
102
RTVSPost2010PropOp47
 70
     1
102
RTVSPost2010Prop48
 90
       50
102
RTVSPost2010PropOp48
 70
     1
102
RTVSPost2010Prop49
280
     0
102
RTVSPost2010PropOp49
 70
     1
102
RTVSPost2010Prop50
 90
       50
102
RTVSPost2010PropOp50
 70
     1
102
RTVSPost2010Prop51ColorIndex
 90
      256
102
RTVSPost2010Prop51ColorRGB
 90
-16777216
102
RTVSPost2010PropOp51
 70
     0
102
RTVSPost2010Prop52
140
1.0
102
RTVSPost2010PropOp52
 70
     0
102
RTVSPost2010Prop53
 90
        2
102
RTVSPost2010PropOp53
 70
     1
102
RTVSPost2010Prop54
  1
strokes_ogs.tif
102
RTVSPost2010PropOp54
 70
     1
102
RTVSPost2010Prop55
280
     0
102
RTVSPost2010PropOp55
 70
     1
102
RTVSPost2010Prop56
140
1.0
102
RTVSPost2010PropOp56
 70
     1
102
RTVSPost2010Prop57
140
1.0
102
RTVSPost2010PropOp57
 70
     1
  0
ENDSEC
  0
EOF
