  0
SECTION
  2
HEADER
  9
$ACADVER
  1
AC1024
  9
$ACADMAINTVER
 70
     6
  9
$DWGCODEPAGE
  3
ANSI_1252
  9
$INSBASE
 10
0.0
 20
0.0
 30
0.0
  9
$EXTMIN
 10
1.000000E+20
 20
1.000000E+20
 30
1.000000E+20
  9
$EXTMAX
 10
-1.000000E+20
 20
-1.000000E+20
 30
-1.000000E+20
  9
$LIMMIN
 10
0.0
 20
0.0
  9
$LIMMAX
 10
420.0
 20
297.0
  9
$ORTHOMODE
 70
     0
  9
$REGENMODE
 70
     1
  9
$FILLMODE
 70
     1
  9
$QTEXTMODE
 70
     0
  9
$MIRRTEXT
 70
     1
  9
$LTSCALE
 40
1.0
  9
$ATTMODE
 70
     1
  9
$TEXTSIZE
 40
2.5
  9
$TRACEWID
 40
1.0
  9
$TEXTSTYLE
  7
Standard
  9
$CLAYER
  8
0
  9
$CELTYPE
  6
ByLayer
  9
$CECOLOR
 62
   256
  9
$CELTSCALE
 40
1.0
  9
$DISPSILH
 70
     0
  9
$DIMSCALE
 40
1.0
  9
$DIMASZ
 40
2.5
  9
$DIMEXO
 40
0.625
  9
$DIMDLI
 40
3.75
  9
$DIMRND
 40
0.0
  9
$DIMDLE
 40
0.0
  9
$DIMEXE
 40
1.25
  9
$DIMTP
 40
0.0
  9
$DIMTM
 40
0.0
  9
$DIMTXT
 40
2.5
  9
$DIMCEN
 40
2.5
  9
$DIMTSZ
 40
0.0
  9
$DIMTOL
 70
     0
  9
$DIMLIM
 70
     0
  9
$DIMTIH
 70
     0
  9
$DIMTOH
 70
     0
  9
$DIMSE1
 70
     0
  9
$DIMSE2
 70
     0
  9
$DIMTAD
 70
     1
  9
$DIMZIN
 70
     8
  9
$DIMBLK
  1

  9
$DIMASO
 70
     1
  9
$DIMSHO
 70
     1
  9
$DIMPOST
  1

  9
$DIMAPOST
  1

  9
$DIMALT
 70
     0
  9
$DIMALTD
 70
     3
  9
$DIMALTF
 40
0.03937
  9
$DIMLFAC
 40
1.0
  9
$DIMTOFL
 70
     1
  9
$DIMTVP
 40
0.0
  9
$DIMTIX
 70
     0
  9
$DIMSOXD
 70
     0
  9
$DIMSAH
 70
     0
  9
$DIMBLK1
  1

  9
$DIMBLK2
  1

  9
$DIMSTYLE
  2
ISO-25
  9
$DIMCLRD
 70
     0
  9
$DIMCLRE
 70
     0
  9
$DIMCLRT
 70
     0
  9
$DIMTFAC
 40
1.0
  9
$DIMGAP
 40
0.625
  9
$DIMJUST
 70
     0
  9
$DIMSD1
 70
     0
  9
$DIMSD2
 70
     0
  9
$DIMTOLJ
 70
     0
  9
$DIMTZIN
 70
     8
  9
$DIMALTZ
 70
     0
  9
$DIMALTTZ
 70
     0
  9
$DIMUPT
 70
     0
  9
$DIMDEC
 70
     2
  9
$DIMTDEC
 70
     2
  9
$DIMALTU
 70
     2
  9
$DIMALTTD
 70
     3
  9
$DIMTXSTY
  7
Standard
  9
$DIMAUNIT
 70
     0
  9
$DIMADEC
 70
     0
  9
$DIMALTRND
 40
0.0
  9
$DIMAZIN
 70
     0
  9
$DIMDSEP
 70
    44
  9
$DIMATFIT
 70
     3
  9
$DIMFRAC
 70
     0
  9
$DIMLDRBLK
  1

  9
$DIMLUNIT
 70
     2
  9
$DIMLWD
 70
    -2
  9
$DIMLWE
 70
    -2
  9
$DIMTMOVE
 70
     0
  9
$DIMFXL
 40
1.0
  9
$DIMFXLON
 70
     0
  9
$DIMJOGANG
 40
0.785398
  9
$DIMTFILL
 70
     0
  9
$DIMTFILLCLR
 70
     0
  9
$DIMARCSYM
 70
     0
  9
$DIMLTYPE
  6

  9
$DIMLTEX1
  6

  9
$DIMLTEX2
  6

  9
$DIMTXTDIRECTION
 70
     0
  9
$LUNITS
 70
     2
  9
$LUPREC
 70
     4
  9
$SKETCHINC
 40
1.0
  9
$FILLETRAD
 40
10.0
  9
$AUNITS
 70
     0
  9
$AUPREC
 70
     0
  9
$MENU
  1
.
  9
$ELEVATION
 40
0.0
  9
$PELEVATION
 40
0.0
  9
$THICKNESS
 40
0.0
  9
$LIMCHECK
 70
     0
  9
$CHAMFERA
 40
0.0
  9
$CHAMFERB
 40
0.0
  9
$CHAMFERC
 40
0.0
  9
$CHAMFERD
 40
0.0
  9
$SKPOLY
 70
     0
  9
$TDCREATE
 40
2457828.431516308
  9
$TDUCREATE
 40
2457828.389849641
  9
$TDUPDATE
 40
2457828.431517396
  9
$TDUUPDATE
 40
2457828.389850729
  9
$TDINDWG
 40
0.0000000116
  9
$TDUSRTIMER
 40
0.0000000116
  9
$USRTIMER
 70
     1
  9
$ANGBASE
 50
0.0
  9
$ANGDIR
 70
     0
  9
$PDMODE
 70
     0
  9
$PDSIZE
 40
0.0
  9
$PLINEWID
 40
0.0
  9
$SPLFRAME
 70
     0
  9
$SPLINETYPE
 70
     6
  9
$SPLINESEGS
 70
     8
  9
$HANDSEED
  5
45A
  9
$SURFTAB1
 70
     6
  9
$SURFTAB2
 70
     6
  9
$SURFTYPE
 70
     6
  9
$SURFU
 70
     6
  9
$SURFV
 70
     6
  9
$UCSBASE
  2

  9
$UCSNAME
  2

  9
$UCSORG
 10
0.0
 20
0.0
 30
0.0
  9
$UCSXDIR
 10
1.0
 20
0.0
 30
0.0
  9
$UCSYDIR
 10
0.0
 20
1.0
 30
0.0
  9
$UCSORTHOREF
  2

  9
$UCSORTHOVIEW
 70
     0
  9
$UCSORGTOP
 10
0.0
 20
0.0
 30
0.0
  9
$UCSORGBOTTOM
 10
0.0
 20
0.0
 30
0.0
  9
$UCSORGLEFT
 10
0.0
 20
0.0
 30
0.0
  9
$UCSORGRIGHT
 10
0.0
 20
0.0
 30
0.0
  9
$UCSORGFRONT
 10
0.0
 20
0.0
 30
0.0
  9
$UCSORGBACK
 10
0.0
 20
0.0
 30
0.0
  9
$PUCSBASE
  2

  9
$PUCSNAME
  2

  9
$PUCSORG
 10
0.0
 20
0.0
 30
0.0
  9
$PUCSXDIR
 10
1.0
 20
0.0
 30
0.0
  9
$PUCSYDIR
 10
0.0
 20
1.0
 30
0.0
  9
$PUCSORTHOREF
  2

  9
$PUCSORTHOVIEW
 70
     0
  9
$PUCSORGTOP
 10
0.0
 20
0.0
 30
0.0
  9
$PUCSORGBOTTOM
 10
0.0
 20
0.0
 30
0.0
  9
$PUCSORGLEFT
 10
0.0
 20
0.0
 30
0.0
  9
$PUCSORGRIGHT
 10
0.0
 20
0.0
 30
0.0
  9
$PUCSORGFRONT
 10
0.0
 20
0.0
 30
0.0
  9
$PUCSORGBACK
 10
0.0
 20
0.0
 30
0.0
  9
$USERI1
 70
     0
  9
$USERI2
 70
     0
  9
$USERI3
 70
     0
  9
$USERI4
 70
     0
  9
$USERI5
 70
     0
  9
$USERR1
 40
0.0
  9
$USERR2
 40
0.0
  9
$USERR3
 40
0.0
  9
$USERR4
 40
0.0
  9
$USERR5
 40
0.0
  9
$WORLDVIEW
 70
     1
  9
$SHADEDGE
 70
     3
  9
$SHADEDIF
 70
    70
  9
$TILEMODE
 70
     1
  9
$MAXACTVP
 70
    64
  9
$PINSBASE
 10
0.0
 20
0.0
 30
0.0
  9
$PLIMCHECK
 70
     0
  9
$PEXTMIN
 10
1.000000E+20
 20
1.000000E+20
 30
1.000000E+20
  9
$PEXTMAX
 10
-1.000000E+20
 20
-1.000000E+20
 30
-1.000000E+20
  9
$PLIMMIN
 10
0.0
 20
0.0
  9
$PLIMMAX
 10
420.0
 20
297.0
  9
$UNITMODE
 70
     0
  9
$VISRETAIN
 70
     1
  9
$PLINEGEN
 70
     0
  9
$PSLTSCALE
 70
     1
  9
$TREEDEPTH
 70
  3020
  9
$CMLSTYLE
  2
Standard
  9
$CMLJUST
 70
     0
  9
$CMLSCALE
 40
20.0
  9
$PROXYGRAPHICS
 70
     1
  9
$MEASUREMENT
 70
     1
  9
$CELWEIGHT
370
    -1
  9
$ENDCAPS
280
     0
  9
$JOINSTYLE
280
     0
  9
$LWDISPLAY
290
     0
  9
$INSUNITS
 70
     4
  9
$HYPERLINKBASE
  1

  9
$STYLESHEET
  1

  9
$XEDIT
290
     1
  9
$CEPSNTYPE
380
     0
  9
$PSTYLEMODE
290
     1
  9
$FINGERPRINTGUID
  2
{4E2FDBA3-08FF-41D4-A16D-0766E69C63F7}
  9
$VERSIONGUID
  2
{FAEB1C32-E019-11D5-929B-00C0DF256EC4}
  9
$EXTNAMES
290
     1
  9
$PSVPSCALE
 40
0.0
  9
$OLESTARTUP
290
     0
  9
$SORTENTS
280
   127
  9
$INDEXCTL
280
     0
  9
$HIDETEXT
280
     1
  9
$XCLIPFRAME
280
     2
  9
$HALOGAP
280
     0
  9
$OBSCOLOR
 70
   257
  9
$OBSLTYPE
280
     0
  9
$INTERSECTIONDISPLAY
280
     0
  9
$INTERSECTIONCOLOR
 70
   257
  9
$DIMASSOC
280
     2
  9
$PROJECTNAME
  1

  9
$CAMERADISPLAY
290
     0
  9
$LENSLENGTH
 40
50.0
  9
$CAMERAHEIGHT
 40
0.0
  9
$STEPSPERSEC
 40
2.0
  9
$STEPSIZE
 40
6.0
  9
$3DDWFPREC
 40
2.0
  9
$PSOLWIDTH
 40
5.0
  9
$PSOLHEIGHT
 40
80.0
  9
$LOFTANG1
 40
1.570796
  9
$LOFTANG2
 40
1.570796
  9
$LOFTMAG1
 40
0.0
  9
$LOFTMAG2
 40
0.0
  9
$LOFTPARAM
 70
     7
  9
$LOFTNORMALS
280
     1
  9
$LATITUDE
 40
37.795
  9
$LONGITUDE
 40
-122.394
  9
$NORTHDIRECTION
 40
0.0
  9
$TIMEZONE
 70
 -8000
  9
$LIGHTGLYPHDISPLAY
280
     1
  9
$TILEMODELIGHTSYNCH
280
     1
  9
$CMATERIAL
347
44
  9
$SOLIDHIST
280
     0
  9
$SHOWHIST
280
     1
  9
$DWFFRAME
280
     2
  9
$DGNFRAME
280
     2
  9
$REALWORLDSCALE
290
     1
  9
$INTERFERECOLOR
 62
   256
  9
$CSHADOW
280
     0
  9
$SHADOWPLANELOCATION
 40
0.0
  0
ENDSEC
  0
SECTION
  2
CLASSES
  0
CLASS
  1
ACDBDICTIONARYWDFLT
  2
AcDbDictionaryWithDefault
  3
ObjectDBX Classes
 90
        0
 91
        4
280
     0
281
     0
  0
CLASS
  1
VISUALSTYLE
  2
AcDbVisualStyle
  3
ObjectDBX Classes
 90
     4095
 91
        4
280
     0
281
     0
  0
CLASS
  1
MATERIAL
  2
AcDbMaterial
  3
ObjectDBX Classes
 90
     1153
 91
        4
280
     0
281
     0
  0
CLASS
  1
SCALE
  2
AcDbScale
  3
ObjectDBX Classes
 90
     1153
 91
        4
280
     0
281
     0
  0
CLASS
  1
TABLESTYLE
  2
AcDbTableStyle
  3
ObjectDBX Classes
 90
     4095
 91
        4
280
     0
281
     0
  0
CLASS
  1
MLEADERSTYLE
  2
AcDbMLeaderStyle
  3
ACDB_MLEADERSTYLE_CLASS
 90
     4095
 91
        4
280
     0
281
     0
  0
CLASS
  1
SUN
  2
AcDbSun
  3
SCENEOE
 90
     1153
 91
        4
280
     0
281
     0
  0
CLASS
  1
DICTIONARYVAR
  2
AcDbDictionaryVar
  3
ObjectDBX Classes
 90
        0
 91
        4
280
     0
281
     0
  0
CLASS
  1
CELLSTYLEMAP
  2
AcDbCellStyleMap
  3
ObjectDBX Classes
 90
     1152
 91
        4
280
     0
281
     0
  0
ENDSEC
  0
SECTION
  2
TABLES
  0
TABLE
  2
VPORT
  5
8
330
0
100
AcDbSymbolTable
 70
     1
  0
VPORT
  5
29
330
8
100
AcDbSymbolTableRecord
100
AcDbViewportTableRecord
  2
*Active
 70
     0
 10
0.0
 20
0.0
 11
1.0
 21
1.0
 12
344.186916
 22
148.5
 13
0.0
 23
0.0
 14
10.0
 24
10.0
 15
10.0
 25
10.0
 16
0.0
 26
0.0
 36
1.0
 17
0.0
 27
0.0
 37
0.0
 40
297.0
 41
1.972973
 42
50.0
 43
0.0
 44
0.0
 50
0.0
 51
0.0
 71
     0
 72
   100
 73
     1
 74
     3
 75
     0
 76
     0
 77
     0
 78
     0
281
     0
 65
     1
110
0.0
120
0.0
130
0.0
111
1.0
121
0.0
131
0.0
112
0.0
122
1.0
132
0.0
 79
     0
146
0.0
348
2F
 60
     3
 61
     5
292
     1
282
     1
141
0.0
142
0.0
 63
   250
361
6D
  0
ENDTAB
  0
TABLE
  2
LTYPE
  5
5
330
0
100
AcDbSymbolTable
 70
     1
  0
LTYPE
  5
14
330
5
100
AcDbSymbolTableRecord
100
AcDbLinetypeTableRecord
  2
ByBlock
 70
     0
  3

 72
    65
 73
     0
 40
0.0
  0
LTYPE
  5
15
330
5
100
AcDbSymbolTableRecord
100
AcDbLinetypeTableRecord
  2
ByLayer
 70
     0
  3

 72
    65
 73
     0
 40
0.0
  0
LTYPE
  5
16
330
5
100
AcDbSymbolTableRecord
100
AcDbLinetypeTableRecord
  2
Continuous
 70
     0
  3
Solid line
 72
    65
 73
     0
 40
0.0
  0
ENDTAB
  0
TABLE
  2
LAYER
  5
2
330
0
100
AcDbSymbolTable
 70
     1
  0
LAYER
  5
10
330
2
100
AcDbSymbolTableRecord
100
AcDbLayerTableRecord
  2
0
 70
     0
 62
   106
  6
Continuous
370
     0
390
F
347
46
  0
ENDTAB
  0
TABLE
  2
STYLE
  5
3
330
0
100
AcDbSymbolTable
 70
     4
  0
STYLE
  5
11
330
3
100
AcDbSymbolTableRecord
100
AcDbTextStyleTableRecord
  2
Standard
 70
     0
 40
0.0
 41
1.0
 50
0.0
 71
     0
 42
2.5
  3
txt
  4

  0
STYLE
  5
6E
330
3
100
AcDbSymbolTableRecord
100
AcDbTextStyleTableRecord
  2
Default
 70
     0
 40
0.0
 41
1.0
 50
0.0
 71
     0
 42
2.5
  3

  4

1001
ACAD
1000
txt
1071
        0
  0
STYLE
  5
6F
330
3
100
AcDbSymbolTableRecord
100
AcDbTextStyleTableRecord
  2
ISO
 70
     0
 40
0.0
 41
1.0
 50
0.0
 71
     0
 42
2.5
  3

  4

1001
ACAD
1000
txt
1071
        0
  0
STYLE
  5
70
330
3
100
AcDbSymbolTableRecord
100
AcDbTextStyleTableRecord
  2
zucchetti
 70
     0
 40
0.0
 41
1.0
 50
0.0
 71
     0
 42
2.5
  3

  4

1001
ACAD
1000
Arial
1071
        0
  0
ENDTAB
  0
TABLE
  2
VIEW
  5
6
330
0
100
AcDbSymbolTable
 70
     0
  0
ENDTAB
  0
TABLE
  2
UCS
  5
7
330
0
100
AcDbSymbolTable
 70
     0
  0
ENDTAB
  0
TABLE
  2
APPID
  5
9
330
0
100
AcDbSymbolTable
 70
     1
  0
APPID
  5
12
330
9
100
AcDbSymbolTableRecord
100
AcDbRegAppTableRecord
  2
ACAD
 70
     0
  0
ENDTAB
  0
TABLE
  2
DIMSTYLE
  5
A
330
0
100
AcDbSymbolTable
 70
     4
100
AcDbDimStyleTable
  0
DIMSTYLE
105
27
330
A
100
AcDbSymbolTableRecord
100
AcDbDimStyleTableRecord
  2
ISO-25
 70
     0
 41
2.5
 42
0.625
 43
3.75
 44
1.25
 73
     0
 74
     0
 77
     1
 78
     8
140
2.5
141
2.5
143
0.03937
147
0.625
171
     3
172
     1
178
     0
271
     2
272
     2
274
     3
278
    44
283
     0
284
     8
340
11
  0
DIMSTYLE
105
71
330
A
100
AcDbSymbolTableRecord
100
AcDbDimStyleTableRecord
  2
Default
 70
     0
  3
<>
 41
4.375
 42
1.05
 44
2.1
 49
10.01
 73
     0
 74
     0
 77
     1
 78
     8
140
3.5
146
0.4
147
1.75
172
     1
271
     2
178
     3
271
     2
272
     3
284
     8
340
6E
341
72
342
72
  0
DIMSTYLE
105
79
330
A
100
AcDbSymbolTableRecord
100
AcDbDimStyleTableRecord
  2
ISO
 70
     0
  3
<>
 41
4.375
 42
1.05
 44
2.1
 49
10.01
 73
     0
 74
     0
 77
     1
 78
     8
140
3.5
146
0.4
147
1.75
172
     1
271
     2
178
     3
271
     2
272
     3
284
     8
340
6F
341
72
342
72
  0
DIMSTYLE
105
7A
330
A
100
AcDbSymbolTableRecord
100
AcDbDimStyleTableRecord
  2
zucchetti
 70
     0
  3
<>
 41
3.0
 42
0.9
 44
1.8
 49
8.58
 73
     0
 74
     0
 77
     1
 78
     8
140
3.0
146
0.6
147
1.5
172
     1
176
     3
177
     3
271
     2
178
     3
271
     2
272
     2
284
     8
340
70
  0
ENDTAB
  0
TABLE
  2
BLOCK_RECORD
  5
1
330
0
100
AcDbSymbolTable
 70
     7
  0
BLOCK_RECORD
  5
1F
330
1
100
AcDbSymbolTableRecord
100
AcDbBlockTableRecord
  2
*Model_Space
340
22
 70
     0
280
     1
281
     0
  0
BLOCK_RECORD
  5
1B
330
1
100
AcDbSymbolTableRecord
100
AcDbBlockTableRecord
  2
*Paper_Space
340
1E
 70
     0
280
     1
281
     0
  0
BLOCK_RECORD
  5
23
330
1
100
AcDbSymbolTableRecord
100
AcDbBlockTableRecord
  2
*Paper_Space0
340
26
 70
     0
280
     1
281
     0
  0
BLOCK_RECORD
  5
72
330
1
100
AcDbSymbolTableRecord
100
AcDbBlockTableRecord
  2
_CLOSED
340
0
 70
     0
280
     1
281
     0
  0
BLOCK_RECORD
  5
7B
330
1
100
AcDbSymbolTableRecord
100
AcDbBlockTableRecord
  2
a
340
0
102
{BLKREFS
331
E1
102
}
 70
     0
280
     1
281
     0
  0
BLOCK_RECORD
  5
E2
330
1
100
AcDbSymbolTableRecord
100
AcDbBlockTableRecord
  2
b
340
0
102
{BLKREFS
331
1CB
102
}
 70
     0
280
     1
281
     0
  0
BLOCK_RECORD
  5
1CC
330
1
100
AcDbSymbolTableRecord
100
AcDbBlockTableRecord
  2
c
340
0
102
{BLKREFS
331
279
102
}
 70
     0
280
     1
281
     0
  0
BLOCK_RECORD
  5
27A
330
1
100
AcDbSymbolTableRecord
100
AcDbBlockTableRecord
  2
d
340
0
102
{BLKREFS
331
377
102
}
 70
     0
280
     1
281
     0
  0
BLOCK_RECORD
  5
378
330
1
100
AcDbSymbolTableRecord
100
AcDbBlockTableRecord
  2
e
340
0
102
{BLKREFS
331
420
102
}
 70
     0
280
     1
281
     0
  0
ENDTAB
  0
ENDSEC
  0
SECTION
  2
BLOCKS
  0
BLOCK
  5
20
330
1F
100
AcDbEntity
  8
0
100
AcDbBlockBegin
  2
*Model_Space
 70
     0
 10
0.0
 20
0.0
 30
0.0
  3
*Model_Space
  1

  0
ENDBLK
  5
21
330
1F
100
AcDbEntity
  8
0
100
AcDbBlockEnd
  0
BLOCK
  5
1C
330
1B
100
AcDbEntity
 67
     1
  8
0
100
AcDbBlockBegin
  2
*Paper_Space
 70
     0
 10
0.0
 20
0.0
 30
0.0
  3
*Paper_Space
  1

  0
ENDBLK
  5
1D
330
1B
100
AcDbEntity
 67
     1
  8
0
100
AcDbBlockEnd
  0
BLOCK
  5
24
330
23
100
AcDbEntity
  8
0
100
AcDbBlockBegin
  2
*Paper_Space0
 70
     0
 10
0.0
 20
0.0
 30
0.0
  3
*Paper_Space0
  1

  0
ENDBLK
  5
25
330
23
100
AcDbEntity
  8
0
100
AcDbBlockEnd
  0
BLOCK
  5
73
330
72
100
AcDbEntity
  8
0
100
AcDbBlockBegin
  2
_CLOSED
 70
     0
 10
0.0
 20
0.0
 30
0.0
  3
_CLOSED
  1

  0
LINE
  5
75
330
72
100
AcDbEntity
  8
0
  6
ByBlock
 62
     0
370
    -2
100
AcDbLine
 10
-1.0
 20
0.166667
 30
0.0
 11
0.0
 21
0.0
 31
0.0
  0
LINE
  5
76
330
72
100
AcDbEntity
  8
0
  6
ByBlock
 62
     0
370
    -2
100
AcDbLine
 10
0.0
 20
0.0
 30
0.0
 11
-1.0
 21
-0.166667
 31
0.0
  0
LINE
  5
77
330
72
100
AcDbEntity
  8
0
  6
ByBlock
 62
     0
370
    -2
100
AcDbLine
 10
-1.0
 20
0.166667
 30
0.0
 11
-1.0
 21
-0.166667
 31
0.0
  0
LINE
  5
78
330
72
100
AcDbEntity
  8
0
  6
ByBlock
 62
     0
370
    -2
100
AcDbLine
 10
0.0
 20
0.0
 30
0.0
 11
-1.0
 21
0.0
 31
0.0
  0
ENDBLK
  5
74
330
72
100
AcDbEntity
  8
0
100
AcDbBlockEnd
  0
BLOCK
  5
DF
330
7B
100
AcDbEntity
  8
0
100
AcDbBlockBegin
  2
a
 70
     0
 10
107.140549
 20
85.826683
 30
0.0
  3
a
  1

  0
LINE
  5
7C
330
7B
100
AcDbEntity
  8
0
  6
Continuous
 62
     0
370
    30
100
AcDbLine
 10
262.895714
 20
522.900976
 30
0.0
 11
262.895714
 21
453.239392
 31
0.0
  0
LINE
  5
7D
330
7B
100
AcDbEntity
  8
0
  6
Continuous
 62
     0
370
    30
100
AcDbLine
 10
284.895714
 20
453.238589
 30
0.0
 11
284.895714
 21
522.900976
 31
0.0
  0
LINE
  5
7E
330
7B
100
AcDbEntity
  8
0
  6
Continuous
 62
     0
370
     0
100
AcDbLine
 10
183.602546
 20
458.759492
 30
0.0
 11
189.623752
 21
456.955251
 31
0.0
  0
LINE
  5
7F
330
7B
100
AcDbEntity
  8
0
  6
Continuous
 62
     0
370
     0
100
AcDbLine
 10
177.58134
 20
460.563732
 30
0.0
 11
183.602546
 21
458.759492
 31
0.0
  0
LINE
  5
80
330
7B
100
AcDbEntity
  8
0
  6
Continuous
 62
     0
370
     0
100
AcDbLine
 10
206.289857
 20
416.658516
 30
0.0
 11
204.485616
 21
410.637311
 31
0.0
  0
LINE
  5
81
330
7B
100
AcDbEntity
  8
0
  6
Continuous
 62
     0
370
     0
100
AcDbLine
 10
208.094097
 20
422.679722
 30
0.0
 11
206.289857
 21
416.658516
 31
0.0
  0
LINE
  5
82
330
7B
100
AcDbEntity
  8
0
  6
Continuous
 62
     0
370
     0
100
AcDbLine
 10
164.188881
 20
393.971206
 30
0.0
 11
158.167676
 21
395.775447
 31
0.0
  0
LINE
  5
83
330
7B
100
AcDbEntity
  8
0
  6
Continuous
 62
     0
370
     0
100
AcDbLine
 10
170.210087
 20
392.166965
 30
0.0
 11
164.188881
 21
393.971206
 31
0.0
  0
LINE
  5
84
330
7B
100
AcDbEntity
  8
0
  6
Continuous
 62
     0
370
     0
100
AcDbLine
 10
141.501571
 20
436.072181
 30
0.0
 11
143.305812
 21
442.093387
 31
0.0
  0
LINE
  5
85
330
7B
100
AcDbEntity
  8
0
  6
Continuous
 62
     0
370
     0
100
AcDbLine
 10
139.69733
 20
430.050975
 30
0.0
 11
141.501571
 21
436.072181
 31
0.0
  0
ARC
  5
86
330
7B
100
AcDbEntity
  8
0
  6
Continuous
 62
     0
370
    30
100
AcDbCircle
 10
150.15127
 20
433.479412
 30
0.0
 40
11.00276646306098
100
AcDbArc
 50
128.473889
 51
163.31132
  0
ARC
  5
87
330
7B
100
AcDbEntity
  8
0
  6
Continuous
 62
     0
370
    30
100
AcDbCircle
 10
150.151769
 20
433.481075
 30
0.0
 40
11.00276646586777
100
AcDbArc
 50
163.327225
 51
198.164656
  0
ARC
  5
88
330
7B
100
AcDbEntity
  8
0
  6
Continuous
 62
     0
370
    30
100
AcDbCircle
 10
143.498016
 20
431.298539
 30
0.0
 40
4.000203289054808
100
AcDbArc
 50
198.172265
 51
291.529396
  0
ARC
  5
89
330
7B
100
AcDbEntity
  8
0
  6
Continuous
 62
     0
370
    30
100
AcDbCircle
 10
145.794154
 20
438.96133
 30
0.0
 40
4.000203289056353
100
AcDbArc
 50
35.10915
 51
128.46628
  0
ARC
  5
8A
330
7B
100
AcDbEntity
  8
0
  6
Continuous
 62
     0
370
    30
100
AcDbCircle
 10
166.781651
 20
402.620905
 30
0.0
 40
11.00276646638638
100
AcDbArc
 50
218.473889
 51
253.31132
  0
ARC
  5
8B
330
7B
100
AcDbEntity
  8
0
  6
Continuous
 62
     0
370
    30
100
AcDbCircle
 10
166.779987
 20
402.621404
 30
0.0
 40
11.00276646584481
100
AcDbArc
 50
253.327225
 51
288.164656
  0
ARC
  5
8C
330
7B
100
AcDbEntity
  8
0
  6
Continuous
 62
     0
370
    30
100
AcDbCircle
 10
168.962524
 20
395.967651
 30
0.0
 40
4.000203289055234
100
AcDbArc
 50
288.172265
 51
21.529396
  0
ARC
  5
8D
330
7B
100
AcDbEntity
  8
0
  6
Continuous
 62
     0
370
    30
100
AcDbCircle
 10
161.299732
 20
398.263789
 30
0.0
 40
4.000203289056178
100
AcDbArc
 50
125.10915
 51
218.46628
  0
ARC
  5
8E
330
7B
100
AcDbEntity
  8
0
  6
Continuous
 62
     0
370
    30
100
AcDbCircle
 10
197.640157
 20
419.251286
 30
0.0
 40
11.00276646356168
100
AcDbArc
 50
308.473889
 51
343.31132
  0
ARC
  5
8F
330
7B
100
AcDbEntity
  8
0
  6
Continuous
 62
     0
370
    30
100
AcDbCircle
 10
197.639659
 20
419.249622
 30
0.0
 40
11.00276645474785
100
AcDbArc
 50
343.327225
 51
18.164656
  0
ARC
  5
90
330
7B
100
AcDbEntity
  8
0
  6
Continuous
 62
     0
370
    30
100
AcDbCircle
 10
204.293412
 20
421.432159
 30
0.0
 40
4.000203289055952
100
AcDbArc
 50
18.172265
 51
111.529396
  0
ARC
  5
91
330
7B
100
AcDbEntity
  8
0
  6
Continuous
 62
     0
370
    30
100
AcDbCircle
 10
201.997273
 20
413.769367
 30
0.0
 40
4.000203289056446
100
AcDbArc
 50
215.10915
 51
308.46628
  0
ARC
  5
92
330
7B
100
AcDbEntity
  8
0
  6
Continuous
 62
     0
370
    30
100
AcDbCircle
 10
181.009777
 20
450.109792
 30
0.0
 40
11.00276646616717
100
AcDbArc
 50
38.473889
 51
73.31132
  0
ARC
  5
93
330
7B
100
AcDbEntity
  8
0
  6
Continuous
 62
     0
370
    30
100
AcDbCircle
 10
181.01144
 20
450.109294
 30
0.0
 40
11.00276646621967
100
AcDbArc
 50
73.327225
 51
108.164656
  0
ARC
  5
94
330
7B
100
AcDbEntity
  8
0
  6
Continuous
 62
     0
370
    30
100
AcDbCircle
 10
178.828904
 20
456.763047
 30
0.0
 40
4.000203289055422
100
AcDbArc
 50
108.172265
 51
201.529396
  0
ARC
  5
95
330
7B
100
AcDbEntity
  8
0
  6
Continuous
 62
     0
370
    30
100
AcDbCircle
 10
186.491695
 20
454.466908
 30
0.0
 40
4.000203289055525
100
AcDbArc
 50
305.10915
 51
38.46628
  0
LINE
  5
96
330
7B
100
AcDbEntity
  8
0
  6
Continuous
 62
     0
370
     0
100
AcDbLine
 10
342.349882
 20
414.180786
 30
0.0
 11
340.085097
 21
420.044314
 31
0.0
  0
LINE
  5
97
330
7B
100
AcDbEntity
  8
0
  6
Continuous
 62
     0
370
     0
100
AcDbLine
 10
344.614666
 20
408.317259
 30
0.0
 11
342.349882
 21
414.180786
 31
0.0
  0
LINE
  5
98
330
7B
100
AcDbEntity
  8
0
  6
Continuous
 62
     0
370
     0
100
AcDbLine
 10
361.711151
 20
457.911181
 30
0.0
 11
367.574679
 21
460.175965
 31
0.0
  0
LINE
  5
99
330
7B
100
AcDbEntity
  8
0
  6
Continuous
 62
     0
370
     0
100
AcDbLine
 10
355.847624
 20
455.646396
 30
0.0
 11
361.711151
 21
457.911181
 31
0.0
  0
LINE
  5
9A
330
7B
100
AcDbEntity
  8
0
  6
Continuous
 62
     0
370
     0
100
AcDbLine
 10
405.441546
 20
438.549911
 30
0.0
 11
407.70633
 21
432.686384
 31
0.0
  0
LINE
  5
9B
330
7B
100
AcDbEntity
  8
0
  6
Continuous
 62
     0
370
     0
100
AcDbLine
 10
403.176761
 20
444.413439
 30
0.0
 11
405.441546
 21
438.549911
 31
0.0
  0
LINE
  5
9C
330
7B
100
AcDbEntity
  8
0
  6
Continuous
 62
     0
370
     0
100
AcDbLine
 10
386.080276
 20
394.819517
 30
0.0
 11
380.216749
 21
392.554732
 31
0.0
  0
LINE
  5
9D
330
7B
100
AcDbEntity
  8
0
  6
Continuous
 62
     0
370
     0
100
AcDbLine
 10
391.943804
 20
397.084301
 30
0.0
 11
386.080276
 21
394.819517
 31
0.0
  0
ARC
  5
9E
330
7B
100
AcDbEntity
  8
0
  6
Continuous
 62
     0
370
    30
100
AcDbCircle
 10
382.82754
 20
403.24326
 30
0.0
 40
11.00276646623234
100
AcDbArc
 50
256.273646
 51
291.111077
  0
ARC
  5
9F
330
7B
100
AcDbEntity
  8
0
  6
Continuous
 62
     0
370
    30
100
AcDbCircle
 10
382.82592
 20
403.242635
 30
0.0
 40
11.00276646638407
100
AcDbArc
 50
291.126982
 51
325.964413
  0
ARC
  5
A0
330
7B
100
AcDbEntity
  8
0
  6
Continuous
 62
     0
370
    30
100
AcDbCircle
 10
388.628578
 20
399.322806
 30
0.0
 40
4.00020328905607
100
AcDbArc
 50
325.972022
 51
59.329153
  0
ARC
  5
A1
330
7B
100
AcDbEntity
  8
0
  6
Continuous
 62
     0
370
    30
100
AcDbCircle
 10
381.166453
 20
396.440564
 30
0.0
 40
4.000203289055792
100
AcDbArc
 50
162.908907
 51
256.266037
  0
ARC
  5
A2
330
7B
100
AcDbEntity
  8
0
  6
Continuous
 62
     0
370
    30
100
AcDbCircle
 10
397.017802
 20
435.297175
 30
0.0
 40
11.00276646633635
100
AcDbArc
 50
346.273646
 51
21.111077
  0
ARC
  5
A3
330
7B
100
AcDbEntity
  8
0
  6
Continuous
 62
     0
370
    30
100
AcDbCircle
 10
397.018428
 20
435.295555
 30
0.0
 40
11.0027664663862
100
AcDbArc
 50
21.126982
 51
55.964413
  0
ARC
  5
A4
330
7B
100
AcDbEntity
  8
0
  6
Continuous
 62
     0
370
    30
100
AcDbCircle
 10
400.938257
 20
441.098213
 30
0.0
 40
4.000203289056005
100
AcDbArc
 50
55.972022
 51
149.329153
  0
ARC
  5
A5
330
7B
100
AcDbEntity
  8
0
  6
Continuous
 62
     0
370
    30
100
AcDbCircle
 10
403.820499
 20
433.636088
 30
0.0
 40
4.000203289055769
100
AcDbArc
 50
252.908907
 51
346.266037
  0
ARC
  5
A6
330
7B
100
AcDbEntity
  8
0
  6
Continuous
 62
     0
370
    30
100
AcDbCircle
 10
364.963887
 20
449.487437
 30
0.0
 40
11.002766466285
100
AcDbArc
 50
76.273646
 51
111.111077
  0
ARC
  5
A7
330
7B
100
AcDbEntity
  8
0
  6
Continuous
 62
     0
370
    30
100
AcDbCircle
 10
364.965507
 20
449.488063
 30
0.0
 40
11.00276646629287
100
AcDbArc
 50
111.126982
 51
145.964413
  0
ARC
  5
A8
330
7B
100
AcDbEntity
  8
0
  6
Continuous
 62
     0
370
    30
100
AcDbCircle
 10
359.16285
 20
453.407892
 30
0.0
 40
4.000203289055786
100
AcDbArc
 50
145.972022
 51
239.329153
  0
ARC
  5
A9
330
7B
100
AcDbEntity
  8
0
  6
Continuous
 62
     0
370
    30
100
AcDbCircle
 10
366.624975
 20
456.290134
 30
0.0
 40
4.000203289055845
100
AcDbArc
 50
342.908907
 51
76.266037
  0
ARC
  5
AA
330
7B
100
AcDbEntity
  8
0
  6
Continuous
 62
     0
370
    30
100
AcDbCircle
 10
350.773625
 20
417.433522
 30
0.0
 40
11.00276646625073
100
AcDbArc
 50
166.273646
 51
201.111077
  0
ARC
  5
AB
330
7B
100
AcDbEntity
  8
0
  6
Continuous
 62
     0
370
    30
100
AcDbCircle
 10
350.773
 20
417.435142
 30
0.0
 40
11.00276646624453
100
AcDbArc
 50
201.126982
 51
235.964413
  0
ARC
  5
AC
330
7B
100
AcDbEntity
  8
0
  6
Continuous
 62
     0
370
    30
100
AcDbCircle
 10
346.853171
 20
411.632485
 30
0.0
 40
4.000203289055817
100
AcDbArc
 50
235.972022
 51
329.329153
  0
ARC
  5
AD
330
7B
100
AcDbEntity
  8
0
  6
Continuous
 62
     0
370
    30
100
AcDbCircle
 10
343.970929
 20
419.09461
 30
0.0
 40
4.000203289055831
100
AcDbArc
 50
72.908907
 51
166.266037
  0
ARC
  5
AE
330
7B
100
AcDbEntity
  8
0
  6
Continuous
 62
     0
370
     0
100
AcDbCircle
 10
173.895714
 20
426.365349
 30
0.0
 40
28.0391027319331
100
AcDbArc
 50
180.0
 51
0.0
  0
ARC
  5
AF
330
7B
100
AcDbEntity
  8
0
  6
Continuous
 62
     0
370
     0
100
AcDbCircle
 10
173.895714
 20
426.365349
 30
0.0
 40
28.0391027319331
100
AcDbArc
 50
0.0
 51
180.0
  0
CIRCLE
  5
B0
330
7B
100
AcDbEntity
  8
0
  6
Continuous
 62
     0
370
    30
100
AcDbCircle
 10
173.895725
 20
426.365346
 30
0.0
 40
29.03893162770442
  0
ARC
  5
B1
330
7B
100
AcDbEntity
  8
0
  6
Continuous
 62
     0
370
     0
100
AcDbCircle
 10
373.895714
 20
426.365349
 30
0.0
 40
28.0391027319331
100
AcDbArc
 50
180.0
 51
0.0
  0
ARC
  5
B2
330
7B
100
AcDbEntity
  8
0
  6
Continuous
 62
     0
370
     0
100
AcDbCircle
 10
373.895714
 20
426.365349
 30
0.0
 40
28.0391027319331
100
AcDbArc
 50
0.0
 51
180.0
  0
CIRCLE
  5
B3
330
7B
100
AcDbEntity
  8
0
  6
Continuous
 62
     0
370
    30
100
AcDbCircle
 10
373.895725
 20
426.365346
 30
0.0
 40
29.03893162770441
  0
ELLIPSE
  5
B4
330
7B
100
AcDbEntity
  8
0
  6
Continuous
 62
     0
370
    30
100
AcDbEllipse
 10
273.895714
 20
534.35587
 30
0.0
 11
13.49999999999989
 21
1.560290358453960E-14
 31
0.0
210
0.0
220
0.0
230
-1.0
 40
0.740175
 41
-0.0000000000000009
 42
1.851866408087456
  0
ELLIPSE
  5
B5
330
7B
100
AcDbEntity
  8
0
  6
Continuous
 62
     0
370
    30
100
AcDbEllipse
 10
273.895714
 20
534.35587
 30
0.0
 11
13.49999999999989
 21
1.560290358453960E-14
 31
0.0
210
0.0
220
0.0
230
-1.0
 40
0.740175
 41
1.851866408087456
 42
3.141592653589793
  0
ELLIPSE
  5
B6
330
7B
100
AcDbEntity
  8
0
  6
Continuous
 62
     0
370
     0
100
AcDbEllipse
 10
273.895714
 20
533.347249
 30
0.0
 11
15.00000000000001
 21
1.300241965378310E-14
 31
0.0
210
0.0
220
0.0
230
-1.0
 40
0.740175
 41
1.851866408087453
 42
3.600673315261692
  0
ELLIPSE
  5
B7
330
7B
100
AcDbEntity
  8
0
  6
Continuous
 62
     0
370
     0
100
AcDbEllipse
 10
273.895714
 20
533.347249
 30
0.0
 11
15.00000000000001
 21
1.300241965378310E-14
 31
0.0
210
0.0
220
0.0
230
-1.0
 40
0.740175
 41
5.824104645507687
 42
8.13505171526704
  0
ELLIPSE
  5
B8
330
7B
100
AcDbEntity
  8
0
  6
Continuous
 62
     0
370
    30
100
AcDbEllipse
 10
273.895714
 20
537.381732
 30
0.0
 11
13.50000000000012
 21
-2.228986226362831E-15
 31
0.0
210
0.0
220
0.0
230
-1.0
 40
0.740175
 41
5.664798665293579
 42
8.13505171526704
  0
ELLIPSE
  5
B9
330
7B
100
AcDbEntity
  8
0
  6
Continuous
 62
     0
370
    30
100
AcDbEllipse
 10
273.895714
 20
537.381732
 30
0.0
 11
13.50000000000012
 21
-2.228986226362831E-15
 31
0.0
210
0.0
220
0.0
230
-1.0
 40
0.740175
 41
1.851866408087454
 42
3.759979295475813
  0
ELLIPSE
  5
BA
330
7B
100
AcDbEntity
  8
0
  6
Continuous
 62
     0
370
    30
100
AcDbEllipse
 10
273.895714
 20
527.295525
 30
0.0
 11
12.50000000000006
 21
1.083534971148597E-14
 31
0.0
210
0.0
220
0.0
230
-1.0
 40
0.740175
 41
0.1185743054816594
 42
1.851866408087456
  0
ELLIPSE
  5
BB
330
7B
100
AcDbEntity
  8
0
  6
Continuous
 62
     0
370
    30
100
AcDbEllipse
 10
273.895714
 20
527.295525
 30
0.0
 11
12.50000000000006
 21
1.083534971148597E-14
 31
0.0
210
0.0
220
0.0
230
-1.0
 40
0.740175
 41
1.851866408087456
 42
3.023021134188542
  0
ELLIPSE
  5
BC
330
7B
100
AcDbEntity
  8
0
  6
Continuous
 62
     0
370
     0
100
AcDbEllipse
 10
273.895714
 20
532.674835
 30
0.0
 11
15.00000000000001
 21
1.052576829115775E-14
 31
0.0
210
0.0
220
0.0
230
-1.0
 40
0.740175
 41
0.0000062376186711
 42
1.851866408087454
  0
ELLIPSE
  5
BD
330
7B
100
AcDbEntity
  8
0
  6
Continuous
 62
     0
370
     0
100
AcDbEllipse
 10
273.895714
 20
532.674835
 30
0.0
 11
15.00000000000001
 21
1.052576829115775E-14
 31
0.0
210
0.0
220
0.0
230
-1.0
 40
0.740175
 41
1.851866408087454
 42
3.141592653589789
  0
LWPOLYLINE
  5
BE
330
7B
100
AcDbEntity
  8
0
  6
Continuous
 62
     0
370
    30
100
AcDbPolyline
 90
       45
 70
     0
 43
0.0
 10
258.895721
 20
532.674805
 10
258.935883
 20
531.833435
 10
259.055511
 20
530.995911
 10
259.253448
 20
530.168396
 10
259.528381
 20
529.357117
 10
259.878204
 20
528.566895
 10
260.299927
 20
527.801331
 10
260.790497
 20
527.063904
 10
261.346863
 20
526.358154
 10
261.966003
 20
525.6875
 10
262.644653
 20
525.055298
 10
263.378876
 20
524.463806
 10
264.164459
 20
523.9151
 10
264.997253
 20
523.411194
 10
265.872986
 20
522.954102
 10
266.787537
 20
522.545898
 10
267.736664
 20
522.188599
 10
268.716156
 20
521.884094
 10
269.721222
 20
521.633606
 10
270.746765
 20
521.437683
 10
271.787628
 20
521.296814
 10
272.838715
 20
521.21167
 10
273.894897
 20
521.1828
 10
274.95108
 20
521.210693
 10
276.002075
 20
521.295532
 10
277.042908
 20
521.436523
 10
278.068451
 20
521.632812
 10
279.073669
 20
521.883606
 10
280.053467
 20
522.187988
 10
281.002899
 20
522.545044
 10
281.91748
 20
522.953186
 10
282.793121
 20
523.410278
 10
283.625702
 20
523.914185
 10
284.411102
 20
524.462891
 10
285.145264
 20
525.05426
 10
285.824036
 20
525.686279
 10
286.443329
 20
526.35675
 10
286.999664
 20
527.062744
 10
287.490143
 20
527.800537
 10
287.911865
 20
528.566284
 10
288.261963
 20
529.356262
 10
288.537567
 20
530.166626
 10
288.735901
 20
530.993408
 10
288.85556
 20
531.831055
 10
288.895721
 20
532.674866
  0
LINE
  5
BF
330
7B
100
AcDbEntity
  8
0
  6
Continuous
 62
     0
370
    30
100
AcDbLine
 10
287.395714
 20
537.381732
 30
0.0
 11
287.395714
 21
534.35587
 31
0.0
  0
LINE
  5
C0
330
7B
100
AcDbEntity
  8
0
  6
Continuous
 62
     0
370
    30
100
AcDbLine
 10
260.395714
 20
537.381732
 30
0.0
 11
260.395714
 21
534.35587
 31
0.0
  0
ARC
  5
C1
330
7B
100
AcDbEntity
  8
0
  6
Continuous
 62
     0
370
    30
100
AcDbCircle
 10
279.488909
 20
533.281064
 30
0.0
 40
9.407038028828364
100
AcDbArc
 50
0.403118
 51
33.761186
  0
ARC
  5
C2
330
7B
100
AcDbEntity
  8
0
  6
Continuous
 62
     0
370
    30
100
AcDbCircle
 10
268.412307
 20
533.250068
 30
0.0
 40
9.517089616503334
100
AcDbArc
 50
146.431673
 51
179.41493
  0
ELLIPSE
  5
C3
330
7B
100
AcDbEntity
  8
0
  6
Continuous
 62
     0
370
    30
100
AcDbEllipse
 10
273.895714
 20
537.381732
 30
0.0
 11
-8.0
 21
9.906605450501385E-16
 31
0.0
210
0.0
220
0.0
230
1.0
 40
0.740175
 41
1.061146886420786
 42
2.081109196274996
  0
ARC
  5
C4
330
7B
100
AcDbEntity
  8
0
  6
Continuous
 62
     0
370
     0
100
AcDbCircle
 10
273.895714
 20
426.365349
 30
0.0
 40
28.0391027319331
100
AcDbArc
 50
180.0
 51
0.0
  0
ARC
  5
C5
330
7B
100
AcDbEntity
  8
0
  6
Continuous
 62
     0
370
     0
100
AcDbCircle
 10
273.895714
 20
426.365349
 30
0.0
 40
28.0391027319331
100
AcDbArc
 50
0.0
 51
180.0
  0
ARC
  5
C6
330
7B
100
AcDbEntity
  8
0
  6
Continuous
 62
     0
370
    30
100
AcDbCircle
 10
273.866172
 20
441.40088
 30
0.0
 40
2.796546144613311
100
AcDbArc
 50
143.152192
 51
325.221034
  0
ARC
  5
C7
330
7B
100
AcDbEntity
  8
0
  6
Continuous
 62
     0
370
    30
100
AcDbCircle
 10
273.925256
 20
441.482761
 30
0.0
 40
2.796546144613312
100
AcDbArc
 50
323.152192
 51
145.221034
  0
CIRCLE
  5
C8
330
7B
100
AcDbEntity
  8
0
  6
Continuous
 62
     0
370
    30
100
AcDbCircle
 10
273.895725
 20
426.365346
 30
0.0
 40
29.03893162770442
  0
ELLIPSE
  5
C9
330
7B
100
AcDbEntity
  8
0
  6
Continuous
 62
     0
370
     0
100
AcDbEllipse
 10
273.895714
 20
454.403413
 30
0.0
 11
-4.999999999999976
 21
-4.940041119574573E-15
 31
0.0
210
0.0
220
0.0
230
-1.0
 40
0.951057
 41
2.172242147578135
 42
3.021236275688219
  0
ELLIPSE
  5
CA
330
7B
100
AcDbEntity
  8
0
  6
Continuous
 62
     0
370
     0
100
AcDbEllipse
 10
273.895714
 20
454.403413
 30
0.0
 11
-4.999999999999976
 21
-4.940041119574573E-15
 31
0.0
210
0.0
220
0.0
230
-1.0
 40
0.951057
 41
0.1208815246140908
 42
2.172242147578133
  0
ELLIPSE
  5
CB
330
7B
100
AcDbEntity
  8
0
  6
Continuous
 62
     0
370
     0
100
AcDbEllipse
 10
273.895714
 20
456.31496
 30
0.0
 11
-7.142857142857174
 21
-3.849382690577625E-15
 31
0.0
210
0.0
220
0.0
230
-1.0
 40
0.951057
 41
6.023661620214737
 42
8.455427454757723
  0
ELLIPSE
  5
CC
330
7B
100
AcDbEntity
  8
0
  6
Continuous
 62
     0
370
     0
100
AcDbEllipse
 10
273.895714
 20
456.31496
 30
0.0
 11
-7.142857142857174
 21
-3.849382690577625E-15
 31
0.0
210
0.0
220
0.0
230
-1.0
 40
0.951057
 41
2.172242147578137
 42
3.401608390011712
  0
ELLIPSE
  5
CD
330
7B
100
AcDbEntity
  8
0
  6
Continuous
 62
     0
370
    30
100
AcDbEllipse
 10
273.895714
 20
452.046959
 30
0.0
 11
-4.999999999999981
 21
-8.981892944681056E-16
 31
0.0
210
0.0
220
0.0
230
-1.0
 40
0.951057
 41
0.7128106895604631
 42
2.172242147578137
  0
ELLIPSE
  5
CE
330
7B
100
AcDbEntity
  8
0
  6
Continuous
 62
     0
370
    30
100
AcDbEllipse
 10
273.895714
 20
452.046959
 30
0.0
 11
-4.999999999999981
 21
-8.981892944681056E-16
 31
0.0
210
0.0
220
0.0
230
-1.0
 40
0.951057
 41
2.172242147578142
 42
2.429236202514714
  0
ELLIPSE
  5
CF
330
7B
100
AcDbEntity
  8
0
  6
Continuous
 62
     0
370
    30
100
AcDbEllipse
 10
273.895714
 20
444.140737
 30
0.0
 11
2.5
 21
9.880082239149225E-15
 31
0.0
210
0.0
220
0.0
230
1.0
 40
0.951057
 41
3.599047192330203
 42
5.681739486396332
  0
ELLIPSE
  5
D0
330
7B
100
AcDbEntity
  8
0
  6
Continuous
 62
     0
370
    30
100
AcDbEllipse
 10
273.895714
 20
444.140737
 30
0.0
 11
2.5
 21
9.880082239149225E-15
 31
0.0
210
0.0
220
0.0
230
1.0
 40
0.951057
 41
5.681739486396332
 42
5.832153394589209
  0
LWPOLYLINE
  5
D1
330
7B
100
AcDbEntity
  8
0
  6
Continuous
 62
     0
370
    30
100
AcDbPolyline
 90
       15
 70
     0
 43
0.0
 10
281.413605
 20
454.410706
 10
281.639008
 20
455.117737
 10
281.794312
 20
455.842865
 10
281.878357
 20
456.579376
 10
281.891022
 20
457.320343
 10
281.832214
 20
458.058838
 10
281.701782
 20
458.787933
 10
281.500427
 20
459.500916
 10
281.230927
 20
460.191772
 10
280.896454
 20
460.854584
 10
280.500122
 20
461.483429
 10
280.045166
 20
462.072327
 10
279.535248
 20
462.615692
 10
278.976135
 20
463.108734
 10
278.345306
 20
463.565918
  0
LWPOLYLINE
  5
D2
330
7B
100
AcDbEntity
  8
0
  6
Continuous
 62
     0
370
    30
100
AcDbPolyline
 90
       27
 70
     0
 43
0.0
 10
278.345306
 20
463.565918
 10
277.6875
 20
463.951752
 10
276.993744
 20
464.274933
 10
276.271515
 20
464.531921
 10
275.528229
 20
464.719421
 10
274.770813
 20
464.836243
 10
274.00592
 20
464.882233
 10
273.240295
 20
464.857147
 10
272.480591
 20
464.760803
 10
271.733521
 20
464.593231
 10
271.005585
 20
464.35611
 10
270.303375
 20
464.052124
 10
269.633392
 20
463.683929
 10
269.002106
 20
463.25415
 10
268.415802
 20
462.765991
 10
267.8797
 20
462.224274
 10
267.398834
 20
461.634308
 10
266.978302
 20
461.001373
 10
266.623047
 20
460.330688
 10
266.336761
 20
459.628326
 10
266.120911
 20
458.901398
 10
265.976868
 20
458.157074
 10
265.905914
 20
457.402679
 10
265.909393
 20
456.645355
 10
265.988556
 20
455.892365
 10
266.143463
 20
455.150818
 10
266.376678
 20
454.413818
  0
ELLIPSE
  5
D3
330
7B
100
AcDbEntity
  8
0
  6
Continuous
 62
     0
370
     0
100
AcDbEllipse
 10
273.895714
 20
557.554145
 30
0.0
 11
-11.0
 21
1.362158249443941E-15
 31
0.0
210
0.0
220
0.0
230
1.0
 40
0.740175
 41
6.283163772255955
 42
9.143707879476821
  0
ELLIPSE
  5
D4
330
7B
100
AcDbEntity
  8
0
  6
Continuous
 62
     0
370
     0
100
AcDbEllipse
 10
273.895714
 20
557.554145
 30
0.0
 11
-11.0
 21
1.362158249443941E-15
 31
0.0
210
0.0
220
0.0
230
1.0
 40
0.740175
 41
2.860522572297236
 42
3.141909188598417
  0
ELLIPSE
  5
D5
330
7B
100
AcDbEntity
  8
0
  6
Continuous
 62
     0
370
     0
100
AcDbEllipse
 10
273.895714
 20
540.071387
 30
0.0
 11
-11.0
 21
1.362158249443941E-15
 31
0.0
210
0.0
220
0.0
230
1.0
 40
0.740175
 41
2.860522572297236
 42
3.141592653589792
  0
ELLIPSE
  5
D6
330
7B
100
AcDbEntity
  8
0
  6
Continuous
 62
     0
370
     0
100
AcDbEllipse
 10
273.895714
 20
540.071387
 30
0.0
 11
-11.0
 21
1.362158249443941E-15
 31
0.0
210
0.0
220
0.0
230
1.0
 40
0.740175
 41
0.0
 42
2.860522572297231
  0
ELLIPSE
  5
D7
330
7B
100
AcDbEntity
  8
0
  6
Continuous
 62
     0
370
     0
100
AcDbEllipse
 10
273.895714
 20
558.226559
 30
0.0
 11
-10.0
 21
2.063876135521123E-15
 31
0.0
210
0.0
220
0.0
230
1.0
 40
0.740175
 41
2.860522572297235
 42
6.002115225887028
  0
ELLIPSE
  5
D8
330
7B
100
AcDbEntity
  8
0
  6
Continuous
 62
     0
370
     0
100
AcDbEllipse
 10
273.895714
 20
558.226559
 30
0.0
 11
-10.0
 21
2.063876135521123E-15
 31
0.0
210
0.0
220
0.0
230
1.0
 40
0.740175
 41
6.002115225887028
 42
9.14370787947682
  0
LWPOLYLINE
  5
D9
330
7B
100
AcDbEntity
  8
0
  6
Continuous
 62
     0
370
    30
100
AcDbPolyline
 90
       36
 70
     0
 43
0.0
 10
262.895752
 20
540.071533
 10
262.93399
 20
539.371216
 10
263.047852
 20
538.674622
 10
263.236115
 20
537.98877
 10
263.497223
 20
537.320312
 10
263.828247
 20
536.673584
 10
264.226044
 20
536.052551
 10
264.687408
 20
535.461304
 10
265.209076
 20
534.903503
 10
265.786987
 20
534.382141
 10
266.416779
 20
533.899719
 10
267.094208
 20
533.45874
 10
267.814941
 20
533.061768
 10
268.574615
 20
532.711365
 10
269.368469
 20
532.409424
 10
270.191223
 20
532.157349
 10
271.037506
 20
531.95636
 10
271.902008
 20
531.8078
 10
272.779297
 20
531.71283
 10
273.663818
 20
531.671814
 10
274.549835
 20
531.684692
 10
275.43161
 20
531.751465
 10
276.303406
 20
531.871948
 10
277.159637
 20
532.045837
 10
277.995056
 20
532.271729
 10
278.804565
 20
532.548035
 10
279.583038
 20
532.873047
 10
280.325348
 20
533.245239
 10
281.026367
 20
533.662964
 10
281.681519
 20
534.124023
 10
282.286774
 20
534.62561
 10
282.838104
 20
535.164856
 10
283.331543
 20
535.738953
 10
283.763184
 20
536.34491
 10
284.129517
 20
536.978699
 10
284.434692
 20
537.654602
  0
LINE
  5
DA
330
7B
100
AcDbEntity
  8
0
  6
Continuous
 62
     0
370
    30
100
AcDbLine
 10
284.895715
 20
540.071239
 30
0.0
 11
284.878707
 21
539.602306
 31
0.0
  0
LINE
  5
DB
330
7B
100
AcDbEntity
  8
0
  6
Continuous
 62
     0
370
    30
100
AcDbLine
 10
262.895755
 20
557.55432
 30
0.0
 11
262.912773
 21
558.023612
 31
0.0
  0
LWPOLYLINE
  5
DC
330
7B
100
AcDbEntity
  8
0
  6
Continuous
 62
     0
370
    30
100
AcDbPolyline
 90
       39
 70
     0
 43
0.0
 10
284.895721
 20
557.554016
 10
284.856445
 20
558.263672
 10
284.739532
 20
558.969421
 10
284.546204
 20
559.663879
 10
284.278229
 20
560.340332
 10
283.938629
 20
560.994202
 10
283.530701
 20
561.621399
 10
283.05777
 20
562.217834
 10
282.523315
 20
562.77948
 10
281.93158
 20
563.303528
 10
281.287018
 20
563.787231
 10
280.594177
 20
564.228027
 10
279.857422
 20
564.623108
 10
279.08136
 20
564.969971
 10
278.271088
 20
565.266724
 10
277.43219
 20
565.512085
 10
276.570343
 20
565.704834
 10
275.691132
 20
565.843811
 10
274.800201
 20
565.927673
 10
273.903259
 20
565.955566
 10
273.006134
 20
565.927795
 10
272.114716
 20
565.844971
 10
271.234894
 20
565.707581
 10
270.372559
 20
565.516296
 10
269.5336
 20
565.271606
 10
268.723389
 20
564.974976
 10
267.94693
 20
564.62854
 10
267.209137
 20
564.234436
 10
266.514954
 20
563.794922
 10
265.869385
 20
563.312134
 10
265.27713
 20
562.788452
 10
264.742218
 20
562.227112
 10
264.26825
 20
561.631531
 10
263.859009
 20
561.005249
 10
263.518158
 20
560.351746
 10
263.249268
 20
559.674622
 10
263.05481
 20
558.979675
 10
262.936401
 20
558.27417
 10
262.895752
 20
557.554321
  0
LINE
  5
DD
330
7B
100
AcDbEntity
  8
0
  6
Continuous
 62
     0
370
    30
100
AcDbLine
 10
284.895714
 20
540.071387
 30
0.0
 11
284.895714
 21
557.554145
 31
0.0
  0
LINE
  5
DE
330
7B
100
AcDbEntity
  8
0
  6
Continuous
 62
     0
370
    30
100
AcDbLine
 10
262.895714
 20
540.071387
 30
0.0
 11
262.895714
 21
557.554145
 31
0.0
  0
ENDBLK
  5
E0
330
7B
100
AcDbEntity
  8
0
100
AcDbBlockEnd
  0
BLOCK
  5
1C9
330
E2
100
AcDbEntity
  8
0
100
AcDbBlockBegin
  2
b
 70
     0
 10
107.140549
 20
85.826683
 30
0.0
  3
b
  1

  0
LINE
  5
E3
330
E2
100
AcDbEntity
  8
0
  6
Continuous
 62
     0
370
    30
100
AcDbLine
 10
262.895714
 20
152.136554
 30
0.0
 11
262.895714
 21
146.444449
 31
0.0
  0
LINE
  5
E4
330
E2
100
AcDbEntity
  8
0
  6
Continuous
 62
     0
370
    30
100
AcDbLine
 10
262.895714
 20
189.43668
 30
0.0
 11
262.895714
 21
204.444446
 31
0.0
  0
LINE
  5
E5
330
E2
100
AcDbEntity
  8
0
  6
Continuous
 62
     0
370
     0
100
AcDbLine
 10
281.361869
 20
146.444449
 30
0.0
 11
284.895714
 21
146.444449
 31
0.0
  0
LINE
  5
E6
330
E2
100
AcDbEntity
  8
0
  6
Continuous
 62
     0
370
     0
100
AcDbLine
 10
262.895714
 20
146.444449
 30
0.0
 11
266.431392
 21
146.444449
 31
0.0
  0
LINE
  5
E7
330
E2
100
AcDbEntity
  8
0
  6
Continuous
 62
     0
370
    30
100
AcDbLine
 10
262.895714
 20
146.444449
 30
0.0
 11
262.895714
 21
127.444449
 31
0.0
  0
LINE
  5
E8
330
E2
100
AcDbEntity
  8
0
  6
Continuous
 62
     0
370
    30
100
AcDbLine
 10
284.895714
 20
127.444449
 30
0.0
 11
284.895714
 21
146.444449
 31
0.0
  0
ARC
  5
E9
330
E2
100
AcDbEntity
  8
0
  6
Continuous
 62
     0
370
    30
100
AcDbCircle
 10
273.895532
 20
204.444758
 30
0.0
 40
10.99981797921365
100
AcDbArc
 50
359.99844
 51
180.001623
  0
LINE
  5
EA
330
E2
100
AcDbEntity
  8
0
  6
Continuous
 62
     0
370
    30
100
AcDbLine
 10
284.895714
 20
204.444458
 30
0.0
 11
284.895714
 21
189.43668
 31
0.0
  0
LINE
  5
EB
330
E2
100
AcDbEntity
  8
0
  6
Continuous
 62
     0
370
    30
100
AcDbLine
 10
284.895714
 20
146.444449
 30
0.0
 11
284.895714
 21
152.13219
 31
0.0
  0
LINE
  5
EC
330
E2
100
AcDbEntity
  8
0
  6
Continuous
 62
     0
370
     0
100
AcDbLine
 10
183.36
 20
128.807175
 30
0.0
 11
176.612326
 21
128.807175
 31
0.0
  0
LINE
  5
ED
330
E2
100
AcDbEntity
  8
0
  6
Continuous
 62
     0
370
     0
100
AcDbLine
 10
176.612326
 20
128.807175
 30
0.0
 11
164.431428
 21
128.807175
 31
0.0
  0
LINE
  5
EE
330
E2
100
AcDbEntity
  8
0
  6
Continuous
 62
     0
370
    30
100
AcDbLine
 10
175.486666
 20
133.944448
 30
0.0
 11
176.42965
 21
133.597965
 31
0.0
  0
LINE
  5
EF
330
E2
100
AcDbEntity
  8
0
  6
Continuous
 62
     0
370
     0
100
AcDbLine
 10
175.486666
 20
133.944449
 30
0.0
 11
162.244601
 21
133.944449
 31
0.0
  0
ARC
  5
F0
330
E2
100
AcDbEntity
  8
0
  6
Continuous
 62
     0
370
    30
100
AcDbCircle
 10
161.235514
 20
134.660822
 30
0.0
 40
1.237516722296116
100
AcDbArc
 50
280.607499
 51
324.628206
  0
LINE
  5
F1
330
E2
100
AcDbEntity
  8
0
  6
Continuous
 62
     0
370
     0
100
AcDbLine
 10
180.145817
 20
124.10475
 30
0.0
 11
175.689733
 21
124.10475
 31
0.0
  0
LINE
  5
F2
330
E2
100
AcDbEntity
  8
0
  6
Continuous
 62
     0
370
     0
100
AcDbLine
 10
175.689733
 20
124.10475
 30
0.0
 11
167.64561
 21
124.10475
 31
0.0
  0
ARC
  5
F3
330
E2
100
AcDbEntity
  8
0
  6
Continuous
 62
     0
370
    30
100
AcDbCircle
 10
177.499545
 20
138.461734
 30
0.0
 40
4.945457454722879
100
AcDbArc
 50
102.514525
 51
245.9825
  0
ELLIPSE
  5
F4
330
E2
100
AcDbEntity
  8
0
  6
Continuous
 62
     0
370
     0
100
AcDbEllipse
 10
183.602546
 20
138.444449
 30
0.0
 11
9.169342511737672E-7
 21
6.28571428568847
 31
0.0
210
0.0
220
0.0
230
1.0
 40
0.957919
 41
3.141592805873955
 42
6.283185459463744
  0
ELLIPSE
  5
F5
330
E2
100
AcDbEntity
  8
0
  6
Continuous
 62
     0
370
     0
100
AcDbEllipse
 10
183.602546
 20
138.444449
 30
0.0
 11
9.169342511737672E-7
 21
6.28571428568847
 31
0.0
210
0.0
220
0.0
230
1.0
 40
0.957919
 41
0.0000001522841764
 42
3.141592805873956
  0
ELLIPSE
  5
F6
330
E2
100
AcDbEntity
  8
0
  6
Continuous
 62
     0
370
     0
100
AcDbEllipse
 10
194.849562
 20
138.444451
 30
0.0
 11
-6.549009873598842E-8
 21
4.999999999979931
 31
0.0
210
0.0
220
0.0
230
-1.0
 40
0.287038
 41
0.0000000456316271
 42
3.14159269922142
  0
LINE
  5
F7
330
E2
100
AcDbEntity
  8
0
  6
Continuous
 62
     0
370
    30
100
AcDbLine
 10
188.774246
 20
143.444451
 30
0.0
 11
194.849562
 21
143.444451
 31
0.0
  0
ELLIPSE
  5
F8
330
E2
100
AcDbEntity
  8
0
  6
Continuous
 62
     0
370
     0
100
AcDbEllipse
 10
200.775149
 20
138.444451
 30
0.0
 11
-9.355728390855413E-8
 21
7.142857142828414
 31
0.0
210
0.0
220
0.0
230
-1.0
 40
0.287038
 41
6.045028985086925
 42
6.28318535281118
  0
ELLIPSE
  5
F9
330
E2
100
AcDbEntity
  8
0
  6
Continuous
 62
     0
370
     0
100
AcDbEllipse
 10
200.775149
 20
138.444451
 30
0.0
 11
-9.355728390855413E-8
 21
7.142857142828414
 31
0.0
210
0.0
220
0.0
230
-1.0
 40
0.287038
 41
3.141592699221414
 42
3.379749066945655
  0
ELLIPSE
  5
FA
330
E2
100
AcDbEntity
  8
0
  6
Continuous
 62
     0
370
     0
100
AcDbEllipse
 10
200.775149
 20
138.444451
 30
0.0
 11
-9.355728390855413E-8
 21
7.142857142828414
 31
0.0
210
0.0
220
0.0
230
-1.0
 40
0.287038
 41
0.0000000456316073
 42
3.141592699221414
  0
ELLIPSE
  5
FB
330
E2
100
AcDbEntity
  8
0
  6
Continuous
 62
     0
370
     0
100
AcDbEllipse
 10
206.289857
 20
138.444451
 30
0.0
 11
-8.233040983952150E-8
 21
6.285714285688536
 31
0.0
210
0.0
220
0.0
230
-1.0
 40
0.287038
 41
0.4448639703964148
 42
2.696728773001655
  0
ELLIPSE
  5
FC
330
E2
100
AcDbEntity
  8
0
  6
Continuous
 62
     0
370
     0
100
AcDbEllipse
 10
152.941866
 20
138.44445
 30
0.0
 11
6.549009873598842E-8
 21
-4.999999999979931
 31
0.0
210
0.0
220
0.0
230
1.0
 40
0.287038
 41
-0.0000000456316069
 42
3.141592607958186
  0
LINE
  5
FD
330
E2
100
AcDbEntity
  8
0
  6
Continuous
 62
     0
370
    30
100
AcDbLine
 10
161.442765
 20
143.444451
 30
0.0
 11
152.941866
 21
143.44445
 31
0.0
  0
LWPOLYLINE
  5
FE
330
E2
100
AcDbEntity
  8
0
  6
Continuous
 62
     0
370
    30
100
AcDbPolyline
 90
       24
 70
     0
 43
0.0
 10
162.244598
 20
133.944443
 10
162.483078
 20
134.227997
 10
162.721939
 20
134.567474
 10
162.954163
 20
134.95813
 10
163.172867
 20
135.39537
 10
163.371094
 20
135.874405
 10
163.541809
 20
136.389893
 10
163.678421
 20
136.935669
 10
163.775055
 20
137.504547
 10
163.827148
 20
138.088409
 10
163.832077
 20
138.678009
 10
163.789688
 20
139.263855
 10
163.701965
 20
139.836548
 10
163.573257
 20
140.387802
 10
163.409103
 20
140.91008
 10
163.216019
 20
141.397156
 10
163.000992
 20
141.843506
 10
162.770981
 20
142.244278
 10
162.53299
 20
142.594711
 10
162.293945
 20
142.890182
 10
162.060272
 20
143.126526
 10
161.838165
 20
143.299759
 10
161.633423
 20
143.406418
 10
161.442764
 20
143.444458
  0
ELLIPSE
  5
FF
330
E2
100
AcDbEntity
  8
0
  6
Continuous
 62
     0
370
     0
100
AcDbEllipse
 10
147.016278
 20
138.44445
 30
0.0
 11
9.355728390855413E-8
 21
-7.142857142828414
 31
0.0
210
0.0
220
0.0
230
1.0
 40
0.287038
 41
-0.0000000456316069
 42
3.141592607958172
  0
ELLIPSE
  5
100
330
E2
100
AcDbEntity
  8
0
  6
Continuous
 62
     0
370
     0
100
AcDbEllipse
 10
141.501571
 20
138.44445
 30
0.0
 11
8.233040983952150E-8
 21
-6.285714285688536
 31
0.0
210
0.0
220
0.0
230
1.0
 40
0.287038
 41
-0.0000000456316069
 42
3.141592607958186
  0
ELLIPSE
  5
101
330
E2
100
AcDbEntity
  8
0
  6
Continuous
 62
     0
370
     0
100
AcDbEllipse
 10
141.501571
 20
138.44445
 30
0.0
 11
8.233040983952150E-8
 21
-6.285714285688536
 31
0.0
210
0.0
220
0.0
230
1.0
 40
0.287038
 41
5.838318988107644
 42
6.283185261547979
  0
ELLIPSE
  5
102
330
E2
100
AcDbEntity
  8
0
  6
Continuous
 62
     0
370
     0
100
AcDbEllipse
 10
141.501571
 20
138.44445
 30
0.0
 11
8.233040983952150E-8
 21
-6.285714285688536
 31
0.0
210
0.0
220
0.0
230
1.0
 40
0.287038
 41
3.141592607958186
 42
3.586457955419725
  0
LINE
  5
103
330
E2
100
AcDbEntity
  8
0
  6
Continuous
 62
     0
370
     0
100
AcDbLine
 10
160.895711
 20
150.444449
 30
0.0
 11
161.377615
 21
150.444449
 31
0.0
  0
LINE
  5
104
330
E2
100
AcDbEntity
  8
0
  6
Continuous
 62
     0
370
     0
100
AcDbLine
 10
161.377615
 20
150.444449
 30
0.0
 11
186.895717
 21
150.444449
 31
0.0
  0
LINE
  5
105
330
E2
100
AcDbEntity
  8
0
  6
Continuous
 62
     0
370
    30
100
AcDbLine
 10
166.192267
 20
155.444449
 30
0.0
 11
181.895717
 21
155.444449
 31
0.0
  0
LINE
  5
106
330
E2
100
AcDbEntity
  8
0
  6
Continuous
 62
     0
370
    30
100
AcDbLine
 10
165.895711
 20
155.444449
 30
0.0
 11
166.192267
 21
155.444449
 31
0.0
  0
LINE
  5
107
330
E2
100
AcDbEntity
  8
0
  6
Continuous
 62
     0
370
    30
100
AcDbLine
 10
186.895714
 20
150.444449
 30
0.0
 11
186.895714
 21
145.17329
 31
0.0
  0
LINE
  5
108
330
E2
100
AcDbEntity
  8
0
  6
Continuous
 62
     0
370
    30
100
AcDbLine
 10
160.895714
 20
150.444449
 30
0.0
 11
160.895714
 21
143.444451
 31
0.0
  0
ARC
  5
109
330
E2
100
AcDbEntity
  8
0
  6
Continuous
 62
     0
370
    30
100
AcDbCircle
 10
165.896623
 20
150.443536
 30
0.0
 40
5.000913014710541
100
AcDbArc
 50
90.01046
 51
179.98954
  0
ARC
  5
10A
330
E2
100
AcDbEntity
  8
0
  6
Continuous
 62
     0
370
    30
100
AcDbCircle
 10
181.894804
 20
150.443536
 30
0.0
 40
5.000913014709717
100
AcDbArc
 50
0.01046
 51
89.98954
  0
ARC
  5
10B
330
E2
100
AcDbEntity
  8
0
  6
Continuous
 62
     0
370
    30
100
AcDbCircle
 10
150.149655
 20
138.44445
 30
0.0
 40
11.00067325499461
100
AcDbArc
 50
148.950457
 51
211.049528
  0
ARC
  5
10C
330
E2
100
AcDbEntity
  8
0
  6
Continuous
 62
     0
370
    30
100
AcDbCircle
 10
144.628195
 20
134.893369
 30
0.0
 40
4.443001689206369
100
AcDbArc
 50
208.541361
 51
310.267513
  0
ARC
  5
10D
330
E2
100
AcDbEntity
  8
0
  6
Continuous
 62
     0
370
    30
100
AcDbCircle
 10
144.629822
 20
142.024915
 30
0.0
 40
4.419564941043436
100
AcDbArc
 50
49.502364
 51
89.789707
  0
ARC
  5
10E
330
E2
100
AcDbEntity
  8
0
  6
Continuous
 62
     0
370
    30
100
AcDbCircle
 10
144.710331
 20
141.868459
 30
0.0
 40
4.576442700445297
100
AcDbArc
 50
90.804883
 51
150.552346
  0
ARC
  5
10F
330
E2
100
AcDbEntity
  8
0
  6
Continuous
 62
     0
370
    30
100
AcDbCircle
 10
152.896174
 20
124.974259
 30
0.0
 40
8.470314314055532
100
AcDbArc
 50
89.690926
 51
129.573944
  0
ARC
  5
110
330
E2
100
AcDbEntity
  8
0
  6
Continuous
 62
     0
370
    30
100
AcDbCircle
 10
152.896174
 20
151.914642
 30
0.0
 40
8.470314352421632
100
AcDbArc
 50
230.42606
 51
270.309077
  0
LINE
  5
111
330
E2
100
AcDbEntity
  8
0
  6
Continuous
 62
     0
370
    30
100
AcDbLine
 10
161.464581
 20
133.444451
 30
0.0
 11
152.941866
 21
133.44445
 31
0.0
  0
ARC
  5
112
330
E2
100
AcDbEntity
  8
0
  6
Continuous
 62
     0
370
    30
100
AcDbCircle
 10
165.190481
 20
138.261594
 30
0.0
 40
7.829246634180414
100
AcDbArc
 50
217.971926
 51
242.376465
  0
ARC
  5
113
330
E2
100
AcDbEntity
  8
0
  6
Continuous
 62
     0
370
    30
100
AcDbCircle
 10
165.226091
 20
138.582952
 30
0.0
 40
7.885730113835683
100
AcDbArc
 50
123.308098
 51
141.939491
  0
ARC
  5
114
330
E2
100
AcDbEntity
  8
0
  6
Continuous
 62
     0
370
    30
100
AcDbCircle
 10
197.641772
 20
138.444451
 30
0.0
 40
11.00067325499726
100
AcDbArc
 50
328.950472
 51
31.049543
  0
ARC
  5
115
330
E2
100
AcDbEntity
  8
0
  6
Continuous
 62
     0
370
    30
100
AcDbCircle
 10
203.163233
 20
134.89337
 30
0.0
 40
4.443001668903186
100
AcDbArc
 50
229.732485
 51
331.458637
  0
ARC
  5
116
330
E2
100
AcDbEntity
  8
0
  6
Continuous
 62
     0
370
    30
100
AcDbCircle
 10
203.161605
 20
142.024916
 30
0.0
 40
4.419564918464763
100
AcDbArc
 50
90.210291
 51
130.497634
  0
ARC
  5
117
330
E2
100
AcDbEntity
  8
0
  6
Continuous
 62
     0
370
    30
100
AcDbCircle
 10
203.081097
 20
141.86846
 30
0.0
 40
4.576442757845813
100
AcDbArc
 50
29.447653
 51
89.195115
  0
ARC
  5
118
330
E2
100
AcDbEntity
  8
0
  6
Continuous
 62
     0
370
    30
100
AcDbCircle
 10
194.895254
 20
124.97426
 30
0.0
 40
8.470314352428232
100
AcDbArc
 50
50.42606
 51
90.309077
  0
ARC
  5
119
330
E2
100
AcDbEntity
  8
0
  6
Continuous
 62
     0
370
    30
100
AcDbCircle
 10
194.895253
 20
151.914642
 30
0.0
 40
8.470314314061323
100
AcDbArc
 50
269.690926
 51
309.573944
  0
LINE
  5
11A
330
E2
100
AcDbEntity
  8
0
  6
Continuous
 62
     0
370
    30
100
AcDbLine
 10
188.772838
 20
133.444451
 30
0.0
 11
194.849562
 21
133.444451
 31
0.0
  0
CIRCLE
  5
11B
330
E2
100
AcDbEntity
  8
0
  6
Continuous
 62
     0
370
    30
100
AcDbCircle
 10
182.652591
 20
138.456491
 30
0.0
 40
7.923577784713767
  0
LINE
  5
11C
330
E2
100
AcDbEntity
  8
0
  6
Continuous
 62
     0
370
    30
100
AcDbLine
 10
167.64561
 20
124.10475
 30
0.0
 11
167.640268
 21
122.444449
 31
0.0
  0
LINE
  5
11D
330
E2
100
AcDbEntity
  8
0
  6
Continuous
 62
     0
370
    30
100
AcDbLine
 10
180.145817
 20
124.10475
 30
0.0
 11
180.15116
 21
122.444449
 31
0.0
  0
ARC
  5
11E
330
E2
100
AcDbEntity
  8
0
  6
Continuous
 62
     0
370
    30
100
AcDbCircle
 10
162.647865
 20
124.138396
 30
0.0
 40
4.997858748699443
100
AcDbArc
 50
359.614276
 51
69.092181
  0
ARC
  5
11F
330
E2
100
AcDbEntity
  8
0
  6
Continuous
 62
     0
370
    30
100
AcDbCircle
 10
185.143563
 20
124.138396
 30
0.0
 40
4.997858748699123
100
AcDbArc
 50
110.907819
 51
180.385724
  0
ARC
  5
120
330
E2
100
AcDbEntity
  8
0
  6
Continuous
 62
     0
370
    30
100
AcDbCircle
 10
181.400527
 20
133.937611
 30
0.0
 40
5.49189455278939
100
AcDbArc
 50
290.903409
 51
331.591032
  0
ARC
  5
121
330
E2
100
AcDbEntity
  8
0
  6
Continuous
 62
     0
370
    30
100
AcDbCircle
 10
166.390724
 20
133.939657
 30
0.0
 40
5.493743309181162
100
AcDbArc
 50
185.171668
 51
249.105928
  0
LINE
  5
122
330
E2
100
AcDbEntity
  8
0
  6
Continuous
 62
     0
370
     0
100
AcDbLine
 10
382.724321
 20
128.807175
 30
0.0
 11
364.431428
 21
128.807175
 31
0.0
  0
LINE
  5
123
330
E2
100
AcDbEntity
  8
0
  6
Continuous
 62
     0
370
     0
100
AcDbLine
 10
383.36
 20
128.807175
 30
0.0
 11
382.724321
 21
128.807175
 31
0.0
  0
ARC
  5
124
330
E2
100
AcDbEntity
  8
0
  6
Continuous
 62
     0
370
    30
100
AcDbCircle
 10
386.192668
 20
134.928031
 30
0.0
 40
1.495862602496627
100
AcDbArc
 50
221.112196
 51
262.652815
  0
LINE
  5
125
330
E2
100
AcDbEntity
  8
0
  6
Continuous
 62
     0
370
     0
100
AcDbLine
 10
385.06565
 20
133.944449
 30
0.0
 11
371.311082
 21
133.944449
 31
0.0
  0
ARC
  5
126
330
E2
100
AcDbEntity
  8
0
  6
Continuous
 62
     0
370
    30
100
AcDbCircle
 10
369.183946
 20
138.21818
 30
0.0
 40
4.773834263427377
100
AcDbArc
 50
270.382549
 51
296.460599
  0
LINE
  5
127
330
E2
100
AcDbEntity
  8
0
  6
Continuous
 62
     0
370
     0
100
AcDbLine
 10
379.726022
 20
124.10475
 30
0.0
 11
367.64561
 21
124.10475
 31
0.0
  0
LINE
  5
128
330
E2
100
AcDbEntity
  8
0
  6
Continuous
 62
     0
370
     0
100
AcDbLine
 10
380.145817
 20
124.10475
 30
0.0
 11
379.726022
 21
124.10475
 31
0.0
  0
ELLIPSE
  5
129
330
E2
100
AcDbEntity
  8
0
  6
Continuous
 62
     0
370
     0
100
AcDbEllipse
 10
353.490588
 20
138.444451
 30
0.0
 11
-8.441751355529680E-8
 21
-4.99999999997993
 31
0.0
210
0.0
220
0.0
230
-1.0
 40
0.360307
 41
-0.0000000468586956
 42
3.14159260673109
  0
LINE
  5
12A
330
E2
100
AcDbEntity
  8
0
  6
Continuous
 62
     0
370
    30
100
AcDbLine
 10
356.858954
 20
143.444451
 30
0.0
 11
353.490588
 21
143.444451
 31
0.0
  0
ELLIPSE
  5
12B
330
E2
100
AcDbEntity
  8
0
  6
Continuous
 62
     0
370
     0
100
AcDbEllipse
 10
347.720174
 20
138.444451
 30
0.0
 11
-1.205964479361373E-7
 21
-7.142857142828413
 31
0.0
210
0.0
220
0.0
230
-1.0
 40
0.360307
 41
-0.0000000468586974
 42
3.141592606731085
  0
ELLIPSE
  5
12C
330
E2
100
AcDbEntity
  8
0
  6
Continuous
 62
     0
370
     0
100
AcDbEllipse
 10
347.720174
 20
138.444451
 30
0.0
 11
-1.205964479361373E-7
 21
-7.142857142828413
 31
0.0
210
0.0
220
0.0
230
-1.0
 40
0.360307
 41
5.974198693183332
 42
6.283185260320889
  0
ELLIPSE
  5
12D
330
E2
100
AcDbEntity
  8
0
  6
Continuous
 62
     0
370
     0
100
AcDbEllipse
 10
347.720174
 20
138.444451
 30
0.0
 11
-1.205964479361373E-7
 21
-7.142857142828413
 31
0.0
210
0.0
220
0.0
230
-1.0
 40
0.360307
 41
3.14159260673109
 42
3.450579606234562
  0
ELLIPSE
  5
12E
330
E2
100
AcDbEntity
  8
0
  6
Continuous
 62
     0
370
     0
100
AcDbEllipse
 10
342.349882
 20
138.444451
 30
0.0
 11
-1.061248741837929E-7
 21
-6.285714285688536
 31
0.0
210
0.0
220
0.0
230
-1.0
 40
0.360307
 41
0.5880061634577894
 42
2.553586198371607
  0
LINE
  5
12F
330
E2
100
AcDbEntity
  8
0
  6
Continuous
 62
     0
370
    30
100
AcDbLine
 10
369.211727
 20
143.44445
 30
0.0
 11
368.9295
 21
143.44445
 31
0.0
  0
ARC
  5
130
330
E2
100
AcDbEntity
  8
0
  6
Continuous
 62
     0
370
    30
100
AcDbCircle
 10
369.246259
 20
138.470118
 30
0.0
 40
4.974452480868228
100
AcDbArc
 50
294.524701
 51
90.39774
  0
ELLIPSE
  5
131
330
E2
100
AcDbEntity
  8
0
  6
Continuous
 62
     0
370
     0
100
AcDbEllipse
 10
361.711151
 20
138.444449
 30
0.0
 11
7.113466402258449E-7
 21
-6.285714285688496
 31
0.0
210
0.0
220
0.0
230
1.0
 40
0.932834
 41
6.283185185862419
 42
9.424777839452197
  0
ELLIPSE
  5
132
330
E2
100
AcDbEntity
  8
0
  6
Continuous
 62
     0
370
     0
100
AcDbEllipse
 10
361.711151
 20
138.444449
 30
0.0
 11
7.113466402258449E-7
 21
-6.285714285688496
 31
0.0
210
0.0
220
0.0
230
1.0
 40
0.932834
 41
3.141592532272614
 42
6.283185185862418
  0
ELLIPSE
  5
133
330
E2
100
AcDbEntity
  8
0
  6
Continuous
 62
     0
370
     0
100
AcDbEllipse
 10
394.30084
 20
138.44445
 30
0.0
 11
8.441751355529680E-8
 21
4.99999999997993
 31
0.0
210
0.0
220
0.0
230
1.0
 40
0.360307
 41
0.0000000468587036
 42
3.141592700448505
  0
LINE
  5
134
330
E2
100
AcDbEntity
  8
0
  6
Continuous
 62
     0
370
    30
100
AcDbLine
 10
386.022555
 20
143.44445
 30
0.0
 11
394.30084
 21
143.44445
 31
0.0
  0
LWPOLYLINE
  5
135
330
E2
100
AcDbEntity
  8
0
  6
Continuous
 62
     0
370
    30
100
AcDbPolyline
 90
       23
 70
     0
 43
0.0
 10
386.022552
 20
143.444458
 10
385.786865
 20
143.406326
 10
385.528595
 20
143.292847
 10
385.253754
 20
143.106461
 10
384.969574
 20
142.851257
 10
384.683624
 20
142.531799
 10
384.403778
 20
142.152985
 10
384.138245
 20
141.720184
 10
383.895325
 20
141.238876
 10
383.683197
 20
140.714813
 10
383.51001
 20
140.154572
 10
383.382904
 20
139.56601
 10
383.308044
 20
138.958084
 10
383.289001
 20
138.341064
 10
383.326996
 20
137.725891
 10
383.419861
 20
137.123337
 10
383.563171
 20
136.54335
 10
383.750214
 20
135.994385
 10
383.973572
 20
135.483932
 10
384.224945
 20
135.018234
 10
384.496155
 20
134.602936
 10
384.779083
 20
134.243301
 10
385.065643
 20
133.944443
  0
ELLIPSE
  5
136
330
E2
100
AcDbEntity
  8
0
  6
Continuous
 62
     0
370
     0
100
AcDbEllipse
 10
400.071253
 20
138.44445
 30
0.0
 11
1.205964479361373E-7
 21
7.142857142828413
 31
0.0
210
0.0
220
0.0
230
1.0
 40
0.360307
 41
0.3089858569273796
 42
2.832607015055451
  0
ELLIPSE
  5
137
330
E2
100
AcDbEntity
  8
0
  6
Continuous
 62
     0
370
     0
100
AcDbEllipse
 10
405.441546
 20
138.44445
 30
0.0
 11
1.061248741837929E-7
 21
6.285714285688536
 31
0.0
210
0.0
220
0.0
230
1.0
 40
0.360307
 41
5.69517135982319
 42
6.28318535403829
  0
ELLIPSE
  5
138
330
E2
100
AcDbEntity
  8
0
  6
Continuous
 62
     0
370
     0
100
AcDbEllipse
 10
405.441546
 20
138.44445
 30
0.0
 11
1.061248741837929E-7
 21
6.285714285688536
 31
0.0
210
0.0
220
0.0
230
1.0
 40
0.360307
 41
3.141592700448503
 42
3.729606514393964
  0
ELLIPSE
  5
139
330
E2
100
AcDbEntity
  8
0
  6
Continuous
 62
     0
370
     0
100
AcDbEllipse
 10
405.441546
 20
138.44445
 30
0.0
 11
1.061248741837929E-7
 21
6.285714285688536
 31
0.0
210
0.0
220
0.0
230
1.0
 40
0.360307
 41
0.0000000468587098
 42
3.141592700448503
  0
ELLIPSE
  5
13A
330
E2
100
AcDbEntity
  8
0
  6
Continuous
 62
     0
370
     0
100
AcDbEllipse
 10
384.006003
 20
138.444452
 30
0.0
 11
-8.083484548021565E-7
 21
7.142857142828369
 31
0.0
210
0.0
220
0.0
230
-1.0
 40
0.932834
 41
2.346193944722831
 42
2.764495990469848
  0
ELLIPSE
  5
13B
330
E2
100
AcDbEntity
  8
0
  6
Continuous
 62
     0
370
     0
100
AcDbEllipse
 10
384.006003
 20
138.444452
 30
0.0
 11
-8.083484548021565E-7
 21
7.142857142828369
 31
0.0
210
0.0
220
0.0
230
-1.0
 40
0.932834
 41
0.4485825402615315
 42
0.7953989515012924
  0
LINE
  5
13C
330
E2
100
AcDbEntity
  8
0
  6
Continuous
 62
     0
370
     0
100
AcDbLine
 10
368.994209
 20
150.444449
 30
0.0
 11
386.895717
 21
150.444449
 31
0.0
  0
LINE
  5
13D
330
E2
100
AcDbEntity
  8
0
  6
Continuous
 62
     0
370
     0
100
AcDbLine
 10
360.895711
 20
150.444449
 30
0.0
 11
368.994209
 21
150.444449
 31
0.0
  0
LINE
  5
13E
330
E2
100
AcDbEntity
  8
0
  6
Continuous
 62
     0
370
    30
100
AcDbLine
 10
365.895711
 20
155.444449
 30
0.0
 11
370.879402
 21
155.444449
 31
0.0
  0
LINE
  5
13F
330
E2
100
AcDbEntity
  8
0
  6
Continuous
 62
     0
370
    30
100
AcDbLine
 10
370.879402
 20
155.444449
 30
0.0
 11
381.895717
 21
155.444449
 31
0.0
  0
LINE
  5
140
330
E2
100
AcDbEntity
  8
0
  6
Continuous
 62
     0
370
    30
100
AcDbLine
 10
360.895714
 20
150.444449
 30
0.0
 11
360.895714
 21
146.17288
 31
0.0
  0
LINE
  5
141
330
E2
100
AcDbEntity
  8
0
  6
Continuous
 62
     0
370
    30
100
AcDbLine
 10
386.895714
 20
150.444449
 30
0.0
 11
386.895714
 21
143.444451
 31
0.0
  0
ARC
  5
142
330
E2
100
AcDbEntity
  8
0
  6
Continuous
 62
     0
370
    30
100
AcDbCircle
 10
381.894804
 20
150.443536
 30
0.0
 40
5.000913014709855
100
AcDbArc
 50
0.01046
 51
89.98954
  0
ARC
  5
143
330
E2
100
AcDbEntity
  8
0
  6
Continuous
 62
     0
370
    30
100
AcDbCircle
 10
365.896623
 20
150.443536
 30
0.0
 40
5.000913014709594
100
AcDbArc
 50
90.01046
 51
179.98954
  0
LWPOLYLINE
  5
144
330
E2
100
AcDbEntity
  8
0
  6
Continuous
 62
     0
370
    30
100
AcDbPolyline
 90
        8
 70
     0
 43
0.0
 10
390.932465
 20
143.444458
 10
390.480682
 20
143.979019
 10
389.984192
 20
144.470596
 10
389.446198
 20
144.914658
 10
388.870911
 20
145.307816
 10
388.263092
 20
145.64711
 10
387.627472
 20
145.929596
 10
386.895721
 20
146.172882
  0
LWPOLYLINE
  5
145
330
E2
100
AcDbEntity
  8
0
  6
Continuous
 62
     0
370
    30
100
AcDbPolyline
 90
        9
 70
     0
 43
0.0
 10
385.672119
 20
130.484818
 10
386.436035
 20
130.604843
 10
387.184265
 20
130.802307
 10
387.908508
 20
131.075363
 10
388.601257
 20
131.421265
 10
389.256165
 20
131.835754
 10
389.866974
 20
132.314423
 10
390.427765
 20
132.852554
 10
390.933838
 20
133.444458
  0
ARC
  5
146
330
E2
100
AcDbEntity
  8
0
  6
Continuous
 62
     0
370
    30
100
AcDbCircle
 10
397.023183
 20
138.44445
 30
0.0
 40
10.99781155739429
100
AcDbArc
 50
331.604918
 51
28.395093
  0
ARC
  5
147
330
E2
100
AcDbEntity
  8
0
  6
Continuous
 62
     0
370
    30
100
AcDbCircle
 10
402.40468
 20
141.785755
 30
0.0
 40
4.658763853715996
100
AcDbArc
 50
90.310686
 51
131.978894
  0
ARC
  5
148
330
E2
100
AcDbEntity
  8
0
  6
Continuous
 62
     0
370
    30
100
AcDbCircle
 10
402.4109
 20
135.167332
 30
0.0
 40
4.710794891173313
100
AcDbArc
 50
228.487041
 51
335.508636
  0
ARC
  5
149
330
E2
100
AcDbEntity
  8
0
  6
Continuous
 62
     0
370
    30
100
AcDbCircle
 10
402.26829
 20
141.52
 30
0.0
 40
4.925703664062325
100
AcDbArc
 50
25.937362
 51
88.707248
  0
ARC
  5
14A
330
E2
100
AcDbEntity
  8
0
  6
Continuous
 62
     0
370
    30
100
AcDbCircle
 10
394.374912
 20
125.853881
 30
0.0
 40
7.5909309748011
100
AcDbArc
 50
49.660545
 51
90.559104
  0
ARC
  5
14B
330
E2
100
AcDbEntity
  8
0
  6
Continuous
 62
     0
370
    30
100
AcDbCircle
 10
394.374176
 20
151.037056
 30
0.0
 40
7.592959890310128
100
AcDbArc
 50
269.446601
 51
310.333742
  0
LINE
  5
14C
330
E2
100
AcDbEntity
  8
0
  6
Continuous
 62
     0
370
    30
100
AcDbLine
 10
386.001311
 20
133.44445
 30
0.0
 11
394.30084
 21
133.44445
 31
0.0
  0
LWPOLYLINE
  5
14D
330
E2
100
AcDbEntity
  8
0
  6
Continuous
 62
     0
370
    30
100
AcDbPolyline
 90
       65
 70
     0
 43
0.0
 10
362.89389
 20
146.444443
 10
363.658325
 20
146.405304
 10
364.415955
 20
146.288116
 10
365.157684
 20
146.093628
 10
365.876099
 20
145.824585
 10
366.564606
 20
145.484711
 10
367.216553
 20
145.077713
 10
367.825317
 20
144.607254
 10
368.384796
 20
144.07756
 10
368.890564
 20
143.4944
 10
369.338593
 20
142.863968
 10
369.724854
 20
142.192398
 10
370.045319
 20
141.485855
 10
370.296875
 20
140.750839
 10
370.47818
 20
139.994476
 10
370.587982
 20
139.223953
 10
370.625183
 20
138.446472
 10
370.588776
 20
137.66922
 10
370.47934
 20
136.899139
 10
370.29837
 20
136.143112
 10
370.047241
 20
135.40802
 10
369.72757
 20
134.700729
 10
369.342194
 20
134.028061
 10
368.894592
 20
133.396851
 10
368.388245
 20
132.813889
 10
367.826813
 20
132.285736
 10
367.216064
 20
131.816895
 10
366.562836
 20
131.410858
 10
365.87381
 20
131.071106
 10
365.155853
 20
130.801102
 10
364.41571
 20
130.60434
 10
363.660156
 20
130.484268
 10
362.896057
 20
130.444046
 10
362.131073
 20
130.483582
 10
361.37326
 20
130.601105
 10
360.630707
 20
130.79483
 10
359.911438
 20
131.062958
 10
359.2229
 20
131.402893
 10
358.571289
 20
131.810486
 10
357.962708
 20
132.281433
 10
357.402954
 20
132.811203
 10
356.89679
 20
133.39418
 10
356.448608
 20
134.02449
 10
356.062836
 20
134.696228
 10
355.743073
 20
135.403137
 10
355.491333
 20
136.138245
 10
355.309479
 20
136.89447
 10
355.199371
 20
137.66478
 10
355.162689
 20
138.442093
 10
355.199341
 20
139.219376
 10
355.308441
 20
139.989563
 10
355.489075
 20
140.745605
 10
355.740295
 20
141.480438
 10
356.06073
 20
142.187119
 10
356.446899
 20
142.859253
 10
356.894806
 20
143.490494
 10
357.400482
 20
144.074554
 10
357.95993
 20
144.605118
 10
358.568665
 20
145.076447
 10
359.22052
 20
145.484283
 10
359.909149
 20
145.824677
 10
360.628204
 20
146.093628
 10
361.370972
 20
146.287521
 10
362.128906
 20
146.40477
 10
362.89389
 20
146.444443
  0
LINE
  5
14E
330
E2
100
AcDbEntity
  8
0
  6
Continuous
 62
     0
370
    30
100
AcDbLine
 10
369.219933
 20
133.44445
 30
0.0
 11
368.931688
 21
133.44445
 31
0.0
  0
ARC
  5
14F
330
E2
100
AcDbEntity
  8
0
  6
Continuous
 62
     0
370
    30
100
AcDbCircle
 10
350.768244
 20
138.444451
 30
0.0
 40
10.99781155739509
100
AcDbArc
 50
151.604907
 51
208.395082
  0
ARC
  5
150
330
E2
100
AcDbEntity
  8
0
  6
Continuous
 62
     0
370
    30
100
AcDbCircle
 10
345.386747
 20
141.785756
 30
0.0
 40
4.658763811168467
100
AcDbArc
 50
48.021108
 51
89.689315
  0
ARC
  5
151
330
E2
100
AcDbEntity
  8
0
  6
Continuous
 62
     0
370
    30
100
AcDbCircle
 10
345.380528
 20
135.167333
 30
0.0
 40
4.710794853277841
100
AcDbArc
 50
204.491366
 51
311.512961
  0
ARC
  5
152
330
E2
100
AcDbEntity
  8
0
  6
Continuous
 62
     0
370
    30
100
AcDbCircle
 10
345.523137
 20
141.520001
 30
0.0
 40
4.925703768705125
100
AcDbArc
 50
91.292754
 51
154.06264
  0
ARC
  5
153
330
E2
100
AcDbEntity
  8
0
  6
Continuous
 62
     0
370
    30
100
AcDbCircle
 10
353.416515
 20
125.853881
 30
0.0
 40
7.590931062442592
100
AcDbArc
 50
89.440893
 51
130.339451
  0
ARC
  5
154
330
E2
100
AcDbEntity
  8
0
  6
Continuous
 62
     0
370
    30
100
AcDbCircle
 10
353.417252
 20
151.037057
 30
0.0
 40
7.59295980285383
100
AcDbArc
 50
229.666253
 51
270.553396
  0
LINE
  5
155
330
E2
100
AcDbEntity
  8
0
  6
Continuous
 62
     0
370
    30
100
AcDbLine
 10
356.857577
 20
133.444451
 30
0.0
 11
353.490588
 21
133.444451
 31
0.0
  0
LINE
  5
156
330
E2
100
AcDbEntity
  8
0
  6
Continuous
 62
     0
370
    30
100
AcDbLine
 10
380.145817
 20
124.10475
 30
0.0
 11
380.15116
 21
122.444449
 31
0.0
  0
LINE
  5
157
330
E2
100
AcDbEntity
  8
0
  6
Continuous
 62
     0
370
    30
100
AcDbLine
 10
367.64561
 20
124.10475
 30
0.0
 11
367.640268
 21
122.444449
 31
0.0
  0
ARC
  5
158
330
E2
100
AcDbEntity
  8
0
  6
Continuous
 62
     0
370
    30
100
AcDbCircle
 10
385.143563
 20
124.138396
 30
0.0
 40
4.99785874869767
100
AcDbArc
 50
110.907819
 51
180.385724
  0
ARC
  5
159
330
E2
100
AcDbEntity
  8
0
  6
Continuous
 62
     0
370
    30
100
AcDbCircle
 10
362.647865
 20
124.138396
 30
0.0
 40
4.997858748697944
100
AcDbArc
 50
359.614276
 51
69.092181
  0
ARC
  5
15A
330
E2
100
AcDbEntity
  8
0
  6
Continuous
 62
     0
370
    30
100
AcDbCircle
 10
366.401638
 20
133.954629
 30
0.0
 40
5.51162461072367
100
AcDbArc
 50
219.016579
 51
249.055443
  0
ARC
  5
15B
330
E2
100
AcDbEntity
  8
0
  6
Continuous
 62
     0
370
    30
100
AcDbCircle
 10
381.400704
 20
133.939657
 30
0.0
 40
5.49374330918123
100
AcDbArc
 50
290.894072
 51
354.828332
  0
ARC
  5
15C
330
E2
100
AcDbEntity
  8
0
  6
Continuous
 62
     0
370
    30
100
AcDbCircle
 10
142.963771
 20
94.989074
 30
0.0
 40
9.0
100
AcDbArc
 50
305.333056
 51
350.204853
  0
LINE
  5
15D
330
E2
100
AcDbEntity
  8
0
  6
Continuous
 62
     0
370
     0
100
AcDbLine
 10
148.168726
 20
87.646837
 30
0.0
 11
199.622701
 21
87.646837
 31
0.0
  0
LINE
  5
15E
330
E2
100
AcDbEntity
  8
0
  6
Continuous
 62
     0
370
     0
100
AcDbLine
 10
151.832571
 20
93.45794
 30
0.0
 11
195.958856
 21
93.45794
 31
0.0
  0
LINE
  5
15F
330
E2
100
AcDbEntity
  8
0
  6
Continuous
 62
     0
370
    30
100
AcDbLine
 10
163.574087
 20
122.444449
 30
0.0
 11
184.217341
 21
122.444449
 31
0.0
  0
ARC
  5
160
330
E2
100
AcDbEntity
  8
0
  6
Continuous
 62
     0
370
    30
100
AcDbCircle
 10
163.574087
 20
114.444449
 30
0.0
 40
8.0
100
AcDbArc
 50
90.0
 51
170.204853
  0
LINE
  5
161
330
E2
100
AcDbEntity
  8
0
  6
Continuous
 62
     0
370
     0
100
AcDbLine
 10
155.690709
 20
115.805457
 30
0.0
 11
192.100719
 21
115.805457
 31
0.0
  0
LINE
  5
162
330
E2
100
AcDbEntity
  8
0
  6
Continuous
 62
     0
370
    30
100
AcDbLine
 10
155.690709
 20
115.805457
 30
0.0
 11
151.832571
 21
93.45794
 31
0.0
  0
LINE
  5
163
330
E2
100
AcDbEntity
  8
0
  6
Continuous
 62
     0
370
    30
100
AcDbLine
 10
145.856611
 20
81.044449
 30
0.0
 11
201.934817
 21
81.044449
 31
0.0
  0
ARC
  5
164
330
E2
100
AcDbEntity
  8
0
  6
Continuous
 62
     0
370
    30
100
AcDbCircle
 10
152.795353
 20
81.120405
 30
0.0
 40
8.0
100
AcDbArc
 50
125.333056
 51
172.414456
  0
LINE
  5
165
330
E2
100
AcDbEntity
  8
0
  6
Continuous
 62
     0
370
     0
100
AcDbLine
 10
144.865362
 20
82.176455
 30
0.0
 11
202.926065
 21
82.176455
 31
0.0
  0
ARC
  5
166
330
E2
100
AcDbEntity
  8
0
  6
Continuous
 62
     0
370
    30
100
AcDbCircle
 10
145.856611
 20
82.044449
 30
0.0
 40
1.0
100
AcDbArc
 50
172.414456
 51
270.0
  0
ARC
  5
167
330
E2
100
AcDbEntity
  8
0
  6
Continuous
 62
     0
370
    30
100
AcDbCircle
 10
201.934309
 20
82.044894
 30
0.0
 40
1.000444923691388
100
AcDbArc
 50
270.029091
 51
7.556453
  0
ARC
  5
168
330
E2
100
AcDbEntity
  8
0
  6
Continuous
 62
     0
370
    30
100
AcDbCircle
 10
194.992752
 20
81.118398
 30
0.0
 40
8.003558644067823
100
AcDbArc
 50
7.596642
 51
54.655846
  0
LINE
  5
169
330
E2
100
AcDbEntity
  8
0
  6
Continuous
 62
     0
370
    30
100
AcDbLine
 10
192.100719
 20
115.805457
 30
0.0
 11
195.958856
 21
93.45794
 31
0.0
  0
ARC
  5
16A
330
E2
100
AcDbEntity
  8
0
  6
Continuous
 62
     0
370
    30
100
AcDbCircle
 10
184.216355
 20
114.443278
 30
0.0
 40
8.001170850919756
100
AcDbArc
 50
9.802206
 51
89.985559
  0
ARC
  5
16B
330
E2
100
AcDbEntity
  8
0
  6
Continuous
 62
     0
370
    30
100
AcDbCircle
 10
204.831005
 20
94.991185
 30
0.0
 40
9.003658584640865
100
AcDbArc
 50
189.80476
 51
234.657331
  0
ARC
  5
16C
330
E2
100
AcDbEntity
  8
0
  6
Continuous
 62
     0
370
    30
100
AcDbCircle
 10
342.963771
 20
94.989074
 30
0.0
 40
9.0
100
AcDbArc
 50
305.333056
 51
350.204853
  0
LINE
  5
16D
330
E2
100
AcDbEntity
  8
0
  6
Continuous
 62
     0
370
     0
100
AcDbLine
 10
348.168726
 20
87.646837
 30
0.0
 11
399.622701
 21
87.646837
 31
0.0
  0
LINE
  5
16E
330
E2
100
AcDbEntity
  8
0
  6
Continuous
 62
     0
370
     0
100
AcDbLine
 10
351.832571
 20
93.45794
 30
0.0
 11
395.958856
 21
93.45794
 31
0.0
  0
LINE
  5
16F
330
E2
100
AcDbEntity
  8
0
  6
Continuous
 62
     0
370
    30
100
AcDbLine
 10
363.574087
 20
122.444449
 30
0.0
 11
384.217341
 21
122.444449
 31
0.0
  0
ARC
  5
170
330
E2
100
AcDbEntity
  8
0
  6
Continuous
 62
     0
370
    30
100
AcDbCircle
 10
363.574087
 20
114.444449
 30
0.0
 40
8.0
100
AcDbArc
 50
90.0
 51
170.204853
  0
LINE
  5
171
330
E2
100
AcDbEntity
  8
0
  6
Continuous
 62
     0
370
     0
100
AcDbLine
 10
355.690709
 20
115.805457
 30
0.0
 11
392.100719
 21
115.805457
 31
0.0
  0
LINE
  5
172
330
E2
100
AcDbEntity
  8
0
  6
Continuous
 62
     0
370
    30
100
AcDbLine
 10
355.690709
 20
115.805457
 30
0.0
 11
351.832571
 21
93.45794
 31
0.0
  0
LINE
  5
173
330
E2
100
AcDbEntity
  8
0
  6
Continuous
 62
     0
370
    30
100
AcDbLine
 10
345.856611
 20
81.044449
 30
0.0
 11
401.934817
 21
81.044449
 31
0.0
  0
ARC
  5
174
330
E2
100
AcDbEntity
  8
0
  6
Continuous
 62
     0
370
    30
100
AcDbCircle
 10
352.795353
 20
81.120405
 30
0.0
 40
8.0
100
AcDbArc
 50
125.333056
 51
172.414456
  0
LINE
  5
175
330
E2
100
AcDbEntity
  8
0
  6
Continuous
 62
     0
370
     0
100
AcDbLine
 10
344.865362
 20
82.176455
 30
0.0
 11
402.926065
 21
82.176455
 31
0.0
  0
ARC
  5
176
330
E2
100
AcDbEntity
  8
0
  6
Continuous
 62
     0
370
    30
100
AcDbCircle
 10
345.856611
 20
82.044449
 30
0.0
 40
1.0
100
AcDbArc
 50
172.414456
 51
270.0
  0
ARC
  5
177
330
E2
100
AcDbEntity
  8
0
  6
Continuous
 62
     0
370
    30
100
AcDbCircle
 10
401.934309
 20
82.044894
 30
0.0
 40
1.000444923695224
100
AcDbArc
 50
270.029091
 51
7.556453
  0
ARC
  5
178
330
E2
100
AcDbEntity
  8
0
  6
Continuous
 62
     0
370
    30
100
AcDbCircle
 10
394.992752
 20
81.118398
 30
0.0
 40
8.003558644068137
100
AcDbArc
 50
7.596642
 51
54.655846
  0
LINE
  5
179
330
E2
100
AcDbEntity
  8
0
  6
Continuous
 62
     0
370
    30
100
AcDbLine
 10
392.100719
 20
115.805457
 30
0.0
 11
395.958856
 21
93.45794
 31
0.0
  0
ARC
  5
17A
330
E2
100
AcDbEntity
  8
0
  6
Continuous
 62
     0
370
    30
100
AcDbCircle
 10
384.216355
 20
114.443278
 30
0.0
 40
8.00117085091983
100
AcDbArc
 50
9.802206
 51
89.985559
  0
ARC
  5
17B
330
E2
100
AcDbEntity
  8
0
  6
Continuous
 62
     0
370
    30
100
AcDbCircle
 10
404.831005
 20
94.991185
 30
0.0
 40
9.003658584642023
100
AcDbArc
 50
189.80476
 51
234.657331
  0
ELLIPSE
  5
17C
330
E2
100
AcDbEntity
  8
0
  6
Continuous
 62
     0
370
    30
100
AcDbEllipse
 10
273.895714
 20
177.672602
 30
0.0
 11
-13.49999999999989
 21
1.417448690435556E-14
 31
0.0
210
0.0
220
0.0
230
-1.0
 40
0.672414
 41
1.851866408087455
 42
3.141592653589794
  0
ELLIPSE
  5
17D
330
E2
100
AcDbEntity
  8
0
  6
Continuous
 62
     0
370
    30
100
AcDbEllipse
 10
273.895714
 20
177.672602
 30
0.0
 11
-13.49999999999989
 21
1.417448690435556E-14
 31
0.0
210
0.0
220
0.0
230
-1.0
 40
0.672414
 41
0.0
 42
1.851866408087454
  0
ELLIPSE
  5
17E
330
E2
100
AcDbEntity
  8
0
  6
Continuous
 62
     0
370
     0
100
AcDbEllipse
 10
273.895714
 20
178.782865
 30
0.0
 11
-15.00000000000001
 21
1.181207242029641E-14
 31
0.0
210
0.0
220
0.0
230
-1.0
 40
0.672414
 41
5.832158495383298
 42
8.13505171526704
  0
ELLIPSE
  5
17F
330
E2
100
AcDbEntity
  8
0
  6
Continuous
 62
     0
370
     0
100
AcDbEllipse
 10
273.895714
 20
178.782865
 30
0.0
 11
-15.00000000000001
 21
1.181207242029641E-14
 31
0.0
210
0.0
220
0.0
230
-1.0
 40
0.672414
 41
1.851866408087456
 42
3.592619465386066
  0
ELLIPSE
  5
180
330
E2
100
AcDbEntity
  8
0
  6
Continuous
 62
     0
370
    30
100
AcDbEllipse
 10
273.895714
 20
174.341812
 30
0.0
 11
-13.50000000000012
 21
-2.024926700622262E-15
 31
0.0
210
0.0
220
0.0
230
-1.0
 40
0.672414
 41
1.851866408087455
 42
3.759979295475801
  0
ELLIPSE
  5
181
330
E2
100
AcDbEntity
  8
0
  6
Continuous
 62
     0
370
    30
100
AcDbEllipse
 10
273.895714
 20
174.341812
 30
0.0
 11
-13.50000000000012
 21
-2.024926700622262E-15
 31
0.0
210
0.0
220
0.0
230
-1.0
 40
0.672414
 41
5.664798665293567
 42
8.13505171526704
  0
ELLIPSE
  5
182
330
E2
100
AcDbEntity
  8
0
  6
Continuous
 62
     0
370
    30
100
AcDbEllipse
 10
273.895714
 20
185.444444
 30
0.0
 11
-12.50000000000006
 21
9.843393683580384E-15
 31
0.0
210
0.0
220
0.0
230
-1.0
 40
0.672414
 41
1.851866408087454
 42
3.141592653589792
  0
ELLIPSE
  5
183
330
E2
100
AcDbEntity
  8
0
  6
Continuous
 62
     0
370
    30
100
AcDbEllipse
 10
273.895714
 20
185.444444
 30
0.0
 11
-12.50000000000006
 21
9.843393683580384E-15
 31
0.0
210
0.0
220
0.0
230
-1.0
 40
0.672414
 41
-0.0000000000000009
 42
1.851866408087453
  0
ELLIPSE
  5
184
330
E2
100
AcDbEntity
  8
0
  6
Continuous
 62
     0
370
     0
100
AcDbEllipse
 10
273.895714
 20
179.523041
 30
0.0
 11
-15.00000000000001
 21
9.562153864049478E-15
 31
0.0
210
0.0
220
0.0
230
-1.0
 40
0.672414
 41
1.851866408087453
 42
3.141592653589777
  0
ELLIPSE
  5
185
330
E2
100
AcDbEntity
  8
0
  6
Continuous
 62
     0
370
     0
100
AcDbEllipse
 10
273.895714
 20
179.523041
 30
0.0
 11
-15.00000000000001
 21
9.562153864049478E-15
 31
0.0
210
0.0
220
0.0
230
-1.0
 40
0.672414
 41
0.0000005968097469
 42
1.851866408087452
  0
LWPOLYLINE
  5
186
330
E2
100
AcDbEntity
  8
0
  6
Continuous
 62
     0
370
    30
100
AcDbPolyline
 90
       28
 70
     0
 43
0.0
 10
277.92627
 20
189.716919
 10
276.951355
 20
189.881516
 10
275.959717
 20
190.000427
 10
274.956818
 20
190.073257
 10
273.947968
 20
190.099579
 10
272.938568
 20
190.078979
 10
271.934021
 20
190.011063
 10
270.939423
 20
189.895645
 10
269.958893
 20
189.733566
 10
268.996277
 20
189.525894
 10
268.05545
 20
189.273697
 10
267.140198
 20
188.978043
 10
266.254425
 20
188.640015
 10
265.401978
 20
188.260666
 10
264.58667
 20
187.84108
 10
263.812378
 20
187.382339
 10
263.082916
 20
186.885513
 10
262.401703
 20
186.352341
 10
261.771759
 20
185.785019
 10
261.196136
 20
185.185791
 10
260.677856
 20
184.5569
 10
260.219971
 20
183.900574
 10
259.82547
 20
183.219055
 10
259.497437
 20
182.514587
 10
259.238647
 20
181.789963
 10
259.050995
 20
181.050293
 10
258.936127
 20
180.301285
 10
258.895721
 20
179.523041
  0
LWPOLYLINE
  5
187
330
E2
100
AcDbEntity
  8
0
  6
Continuous
 62
     0
370
    30
100
AcDbPolyline
 90
       20
 70
     0
 43
0.0
 10
288.895721
 20
179.523041
 10
288.858368
 20
180.27211
 10
288.747314
 20
181.017593
 10
288.564056
 20
181.753845
 10
288.31012
 20
182.47522
 10
287.987457
 20
183.177063
 10
287.598938
 20
183.85672
 10
287.147552
 20
184.511795
 10
286.63623
 20
185.139893
 10
286.067993
 20
185.738617
 10
285.44577
 20
186.305557
 10
284.772644
 20
186.838531
 10
284.05188
 20
187.335999
 10
283.286804
 20
187.79657
 10
282.480743
 20
188.218872
 10
281.637024
 20
188.601517
 10
280.759003
 20
188.94313
 10
279.850708
 20
189.242477
 10
278.916901
 20
189.498428
 10
277.92627
 20
189.716919
  0
LINE
  5
188
330
E2
100
AcDbEntity
  8
0
  6
Continuous
 62
     0
370
    30
100
AcDbLine
 10
287.395714
 20
174.341812
 30
0.0
 11
287.395714
 21
177.672602
 31
0.0
  0
LINE
  5
189
330
E2
100
AcDbEntity
  8
0
  6
Continuous
 62
     0
370
    30
100
AcDbLine
 10
260.395714
 20
174.341812
 30
0.0
 11
260.395714
 21
177.672602
 31
0.0
  0
LWPOLYLINE
  5
18A
330
E2
100
AcDbEntity
  8
0
  6
Continuous
 62
     0
370
    30
100
AcDbPolyline
 90
        8
 70
     0
 43
0.0
 10
260.399261
 20
174.133682
 10
260.016846
 20
174.739212
 10
259.687195
 20
175.364029
 10
259.412445
 20
176.006088
 10
259.194733
 20
176.663208
 10
259.035431
 20
177.331909
 10
258.935608
 20
178.008041
 10
258.895721
 20
178.782867
  0
LWPOLYLINE
  5
18B
330
E2
100
AcDbEntity
  8
0
  6
Continuous
 62
     0
370
    30
100
AcDbPolyline
 90
        8
 70
     0
 43
0.0
 10
288.895721
 20
178.782867
 10
288.864929
 20
178.103271
 10
288.773376
 20
177.426193
 10
288.622192
 20
176.755859
 10
288.412537
 20
176.096451
 10
288.145721
 20
175.451965
 10
287.823578
 20
174.824783
 10
287.392181
 20
174.133957
  0
LINE
  5
18C
330
E2
100
AcDbEntity
  8
0
  6
Continuous
 62
     0
370
    30
100
AcDbLine
 10
281.541095
 20
127.444449
 30
0.0
 11
288.395714
 21
127.444449
 31
0.0
  0
LINE
  5
18D
330
E2
100
AcDbEntity
  8
0
  6
Continuous
 62
     0
370
    30
100
AcDbLine
 10
259.964591
 20
127.444449
 30
0.0
 11
266.250328
 21
127.444449
 31
0.0
  0
LINE
  5
18E
330
E2
100
AcDbEntity
  8
0
  6
Continuous
 62
     0
370
    30
100
AcDbLine
 10
259.395714
 20
127.444449
 30
0.0
 11
259.964591
 21
127.444449
 31
0.0
  0
LINE
  5
18F
330
E2
100
AcDbEntity
  8
0
  6
Continuous
 62
     0
370
    30
100
AcDbLine
 10
279.030936
 20
122.444449
 30
0.0
 11
288.395714
 21
122.444449
 31
0.0
  0
LINE
  5
190
330
E2
100
AcDbEntity
  8
0
  6
Continuous
 62
     0
370
    30
100
AcDbLine
 10
259.964591
 20
122.444449
 30
0.0
 11
268.760492
 21
122.444449
 31
0.0
  0
LINE
  5
191
330
E2
100
AcDbEntity
  8
0
  6
Continuous
 62
     0
370
    30
100
AcDbLine
 10
259.395714
 20
122.444449
 30
0.0
 11
259.964591
 21
122.444449
 31
0.0
  0
ARC
  5
192
330
E2
100
AcDbEntity
  8
0
  6
Continuous
 62
     0
370
    30
100
AcDbCircle
 10
288.393415
 20
124.944449
 30
0.0
 40
2.500001382057618
100
AcDbArc
 50
270.052686
 51
89.931108
  0
ARC
  5
193
330
E2
100
AcDbEntity
  8
0
  6
Continuous
 62
     0
370
    30
100
AcDbCircle
 10
259.398013
 20
124.944449
 30
0.0
 40
2.500001382057628
100
AcDbArc
 50
90.068892
 51
269.947314
  0
ELLIPSE
  5
194
330
E2
100
AcDbEntity
  8
0
  6
Continuous
 62
     0
370
    30
100
AcDbEllipse
 10
273.895714
 20
174.341812
 30
0.0
 11
8.0
 21
1.199956563331700E-15
 31
0.0
210
0.0
220
0.0
230
1.0
 40
0.672414
 41
0.7034049961409652
 42
2.438084365905263
  0
ARC
  5
195
330
E2
100
AcDbEntity
  8
0
  6
Continuous
 62
     0
370
    30
100
AcDbCircle
 10
242.963771
 20
94.989074
 30
0.0
 40
9.0
100
AcDbArc
 50
305.333056
 51
350.204853
  0
LINE
  5
196
330
E2
100
AcDbEntity
  8
0
  6
Continuous
 62
     0
370
     0
100
AcDbLine
 10
248.168726
 20
87.646837
 30
0.0
 11
299.622701
 21
87.646837
 31
0.0
  0
LINE
  5
197
330
E2
100
AcDbEntity
  8
0
  6
Continuous
 62
     0
370
     0
100
AcDbLine
 10
251.832571
 20
93.45794
 30
0.0
 11
295.958856
 21
93.45794
 31
0.0
  0
ARC
  5
198
330
E2
100
AcDbEntity
  8
0
  6
Continuous
 62
     0
370
    30
100
AcDbCircle
 10
263.574087
 20
114.444449
 30
0.0
 40
8.0
100
AcDbArc
 50
90.0
 51
170.204853
  0
LINE
  5
199
330
E2
100
AcDbEntity
  8
0
  6
Continuous
 62
     0
370
     0
100
AcDbLine
 10
278.895714
 20
115.805457
 30
0.0
 11
292.100719
 21
115.805457
 31
0.0
  0
LINE
  5
19A
330
E2
100
AcDbEntity
  8
0
  6
Continuous
 62
     0
370
     0
100
AcDbLine
 10
255.690709
 20
115.805457
 30
0.0
 11
268.895714
 21
115.805457
 31
0.0
  0
LINE
  5
19B
330
E2
100
AcDbEntity
  8
0
  6
Continuous
 62
     0
370
    30
100
AcDbLine
 10
255.690709
 20
115.805457
 30
0.0
 11
251.832571
 21
93.45794
 31
0.0
  0
LWPOLYLINE
  5
19C
330
E2
100
AcDbEntity
  8
0
  6
Continuous
 62
     0
370
    30
100
AcDbPolyline
 90
       39
 70
     0
 43
0.0
 10
271.52182
 20
96.196045
 10
271.625092
 20
95.874596
 10
271.744354
 20
95.558769
 10
271.881042
 20
95.249901
 10
272.037323
 20
94.950371
 10
272.215485
 20
94.662964
 10
272.418243
 20
94.391747
 10
272.64859
 20
94.14257
 10
272.909515
 20
93.924187
 10
273.201965
 20
93.748077
 10
273.523132
 20
93.629311
 10
273.863312
 20
93.582512
 10
274.205139
 20
93.614639
 10
274.530945
 20
93.72084
 10
274.829254
 20
93.887306
 10
275.096008
 20
94.098824
 10
275.331909
 20
94.34285
 10
275.539703
 20
94.610329
 10
275.72229
 20
94.89502
 10
275.882416
 20
95.192688
 10
276.022675
 20
95.499924
 10
276.145081
 20
95.814552
 10
276.25119
 20
96.135101
 10
276.342438
 20
96.46035
 10
276.420105
 20
96.789177
 10
276.485107
 20
97.12085
 10
276.538208
 20
97.454796
 10
276.580109
 20
97.790504
 10
276.611328
 20
98.127594
 10
276.632416
 20
98.465683
 10
276.643738
 20
98.804428
 10
276.645508
 20
99.143555
 10
276.637787
 20
99.482819
 10
276.620728
 20
99.821953
 10
276.59436
 20
100.160713
 10
276.558868
 20
100.498848
 10
276.514221
 20
100.836082
 10
276.460114
 20
101.172127
 10
276.395721
 20
101.509521
  0
LWPOLYLINE
  5
19D
330
E2
100
AcDbEntity
  8
0
  6
Continuous
 62
     0
370
    30
100
AcDbPolyline
 90
        8
 70
     0
 43
0.0
 10
271.395721
 20
101.510193
 10
271.265778
 20
100.756271
 10
271.183319
 20
99.996727
 10
271.1474
 20
99.234634
 10
271.158691
 20
98.472832
 10
271.219666
 20
97.714363
 10
271.335571
 20
96.96347
 10
271.52182
 20
96.196045
  0
ARC
  5
19E
330
E2
100
AcDbEntity
  8
0
  6
Continuous
 62
     0
370
    30
100
AcDbCircle
 10
252.795353
 20
81.120405
 30
0.0
 40
8.0
100
AcDbArc
 50
125.333056
 51
172.414456
  0
LINE
  5
19F
330
E2
100
AcDbEntity
  8
0
  6
Continuous
 62
     0
370
     0
100
AcDbLine
 10
244.865362
 20
82.176455
 30
0.0
 11
302.926065
 21
82.176455
 31
0.0
  0
LINE
  5
1A0
330
E2
100
AcDbEntity
  8
0
  6
Continuous
 62
     0
370
    30
100
AcDbLine
 10
245.856611
 20
81.044449
 30
0.0
 11
301.934817
 21
81.044449
 31
0.0
  0
ARC
  5
1A1
330
E2
100
AcDbEntity
  8
0
  6
Continuous
 62
     0
370
    30
100
AcDbCircle
 10
245.856611
 20
82.044449
 30
0.0
 40
1.0
100
AcDbArc
 50
172.414456
 51
270.0
  0
ARC
  5
1A2
330
E2
100
AcDbEntity
  8
0
  6
Continuous
 62
     0
370
    30
100
AcDbCircle
 10
301.934309
 20
82.044894
 30
0.0
 40
1.000444923694956
100
AcDbArc
 50
270.029091
 51
7.556453
  0
ARC
  5
1A3
330
E2
100
AcDbEntity
  8
0
  6
Continuous
 62
     0
370
    30
100
AcDbCircle
 10
294.992752
 20
81.118398
 30
0.0
 40
8.00355864406821
100
AcDbArc
 50
7.596642
 51
54.655846
  0
LINE
  5
1A4
330
E2
100
AcDbEntity
  8
0
  6
Continuous
 62
     0
370
    30
100
AcDbLine
 10
292.100719
 20
115.805457
 30
0.0
 11
295.958856
 21
93.45794
 31
0.0
  0
ARC
  5
1A5
330
E2
100
AcDbEntity
  8
0
  6
Continuous
 62
     0
370
    30
100
AcDbCircle
 10
284.216355
 20
114.443278
 30
0.0
 40
8.001170850919802
100
AcDbArc
 50
9.802206
 51
89.985559
  0
ARC
  5
1A6
330
E2
100
AcDbEntity
  8
0
  6
Continuous
 62
     0
370
    30
100
AcDbCircle
 10
304.831005
 20
94.991185
 30
0.0
 40
9.003658584641823
100
AcDbArc
 50
189.80476
 51
234.657331
  0
ELLIPSE
  5
1A7
330
E2
100
AcDbEntity
  8
0
  6
Continuous
 62
     0
370
     0
100
AcDbEllipse
 10
273.895714
 20
120.936127
 30
0.0
 11
-4.999999999999976
 21
-1.605116682747212E-15
 31
0.0
210
0.0
220
0.0
230
1.0
 40
0.309017
 41
2.172242147578133
 42
3.141592653589792
  0
ELLIPSE
  5
1A8
330
E2
100
AcDbEntity
  8
0
  6
Continuous
 62
     0
370
     0
100
AcDbEllipse
 10
273.895714
 20
120.936127
 30
0.0
 11
-4.999999999999976
 21
-1.605116682747212E-15
 31
0.0
210
0.0
220
0.0
230
1.0
 40
0.309017
 41
6.283184223669721
 42
8.455427454757718
  0
ELLIPSE
  5
1A9
330
E2
100
AcDbEntity
  8
0
  6
Continuous
 62
     0
370
     0
100
AcDbEllipse
 10
273.895714
 20
126.819264
 30
0.0
 11
-7.142857142857174
 21
-1.250740272270567E-15
 31
0.0
210
0.0
220
0.0
230
1.0
 40
0.309017
 41
0.2586824116926101
 42
2.172242147578135
  0
ELLIPSE
  5
1AA
330
E2
100
AcDbEntity
  8
0
  6
Continuous
 62
     0
370
     0
100
AcDbEllipse
 10
273.895714
 20
126.819264
 30
0.0
 11
-7.142857142857174
 21
-1.250740272270567E-15
 31
0.0
210
0.0
220
0.0
230
1.0
 40
0.309017
 41
2.172242147578137
 42
2.882909971146997
  0
ELLIPSE
  5
1AB
330
E2
100
AcDbEntity
  8
0
  6
Continuous
 62
     0
370
     0
100
AcDbEllipse
 10
273.895714
 20
132.299836
 30
0.0
 11
-6.277580071174503
 21
-1.832045181731577E-15
 31
0.0
210
0.0
220
0.0
230
1.0
 40
0.309017
 41
5.794908682914224
 42
8.455427454757718
  0
ELLIPSE
  5
1AC
330
E2
100
AcDbEntity
  8
0
  6
Continuous
 62
     0
370
     0
100
AcDbEllipse
 10
273.895714
 20
132.299836
 30
0.0
 11
-6.277580071174503
 21
-1.832045181731577E-15
 31
0.0
210
0.0
220
0.0
230
1.0
 40
0.309017
 41
2.172242147578137
 42
3.629867756912153
  0
ELLIPSE
  5
1AD
330
E2
100
AcDbEntity
  8
0
  6
Continuous
 62
     0
370
    30
100
AcDbEllipse
 10
273.895714
 20
110.389152
 30
0.0
 11
-2.999999999999982
 21
-1.663484562119836E-15
 31
0.0
210
0.0
220
0.0
230
1.0
 40
0.309017
 41
0.1887105307835553
 42
2.172242147578137
  0
ELLIPSE
  5
1AE
330
E2
100
AcDbEntity
  8
0
  6
Continuous
 62
     0
370
    30
100
AcDbEllipse
 10
273.895714
 20
110.389152
 30
0.0
 11
-2.999999999999982
 21
-1.663484562119836E-15
 31
0.0
210
0.0
220
0.0
230
1.0
 40
0.309017
 41
2.172242147578145
 42
2.952882122806234
  0
ELLIPSE
  5
1AF
330
E2
100
AcDbEntity
  8
0
  6
Continuous
 62
     0
370
    30
100
AcDbEllipse
 10
273.895714
 20
113.683709
 30
0.0
 11
-4.999999999999981
 21
-2.918393968631299E-16
 31
0.0
210
0.0
220
0.0
230
1.0
 40
0.309017
 41
0.0
 42
2.172242147578137
  0
ELLIPSE
  5
1B0
330
E2
100
AcDbEntity
  8
0
  6
Continuous
 62
     0
370
    30
100
AcDbEllipse
 10
273.895714
 20
113.683709
 30
0.0
 11
-4.999999999999981
 21
-2.918393968631299E-16
 31
0.0
210
0.0
220
0.0
230
1.0
 40
0.309017
 41
2.172242147578141
 42
3.141592653589793
  0
LINE
  5
1B1
330
E2
100
AcDbEntity
  8
0
  6
Continuous
 62
     0
370
    30
100
AcDbLine
 10
276.395714
 20
109.876706
 30
0.0
 11
276.395714
 21
96.679444
 31
0.0
  0
LINE
  5
1B2
330
E2
100
AcDbEntity
  8
0
  6
Continuous
 62
     0
370
    30
100
AcDbLine
 10
271.395714
 20
109.876706
 30
0.0
 11
271.395714
 21
96.67932
 31
0.0
  0
LINE
  5
1B3
330
E2
100
AcDbEntity
  8
0
  6
Continuous
 62
     0
370
    30
100
AcDbLine
 10
278.895714
 20
113.683709
 30
0.0
 11
278.895714
 21
120.936127
 31
0.0
  0
LINE
  5
1B4
330
E2
100
AcDbEntity
  8
0
  6
Continuous
 62
     0
370
    30
100
AcDbLine
 10
268.895714
 20
113.683709
 30
0.0
 11
268.895714
 21
120.936127
 31
0.0
  0
LINE
  5
1B5
330
E2
100
AcDbEntity
  8
0
  6
Continuous
 62
     0
370
    30
100
AcDbLine
 10
276.842455
 20
110.215245
 30
0.0
 11
278.806949
 21
113.393863
 31
0.0
  0
LINE
  5
1B6
330
E2
100
AcDbEntity
  8
0
  6
Continuous
 62
     0
370
    30
100
AcDbLine
 10
270.948973
 20
110.215245
 30
0.0
 11
268.984479
 21
113.393863
 31
0.0
  0
ARC
  5
1B7
330
E2
100
AcDbEntity
  8
0
  6
Continuous
 62
     0
370
    30
100
AcDbCircle
 10
273.895714
 20
123.683972
 30
0.0
 40
11.02171134839549
100
AcDbArc
 50
59.800819
 51
120.199215
  0
ARC
  5
1B8
330
E2
100
AcDbEntity
  8
0
  6
Continuous
 62
     0
370
    30
100
AcDbCircle
 10
277.37086
 20
129.194141
 30
0.0
 40
4.517298869559399
100
AcDbArc
 50
319.403816
 51
62.742501
  0
ARC
  5
1B9
330
E2
100
AcDbEntity
  8
0
  6
Continuous
 62
     0
370
    30
100
AcDbCircle
 10
270.420566
 20
129.194142
 30
0.0
 40
4.517297810129101
100
AcDbArc
 50
117.257346
 51
220.596208
  0
ARC
  5
1BA
330
E2
100
AcDbEntity
  8
0
  6
Continuous
 62
     0
370
    30
100
AcDbCircle
 10
287.122678
 20
120.989549
 30
0.0
 40
8.227137396036927
100
AcDbArc
 50
140.210799
 51
180.372044
  0
ARC
  5
1BB
330
E2
100
AcDbEntity
  8
0
  6
Continuous
 62
     0
370
    30
100
AcDbCircle
 10
260.66875
 20
120.989549
 30
0.0
 40
8.227136824395728
100
AcDbArc
 50
359.627955
 51
39.789202
  0
ELLIPSE
  5
1BC
330
E2
100
AcDbEntity
  8
0
  6
Continuous
 62
     0
370
     0
100
AcDbEllipse
 10
273.895714
 20
152.136548
 30
0.0
 11
11.0
 21
1.237455205935816E-15
 31
0.0
210
0.0
220
0.0
230
1.0
 40
0.672414
 41
2.860522572297232
 42
3.151971230451258
  0
ELLIPSE
  5
1BD
330
E2
100
AcDbEntity
  8
0
  6
Continuous
 62
     0
370
     0
100
AcDbEllipse
 10
273.895714
 20
152.136548
 30
0.0
 11
11.0
 21
1.237455205935816E-15
 31
0.0
210
0.0
220
0.0
230
1.0
 40
0.672414
 41
6.2831670661907
 42
9.143707879476818
  0
ELLIPSE
  5
1BE
330
E2
100
AcDbEntity
  8
0
  6
Continuous
 62
     0
370
     0
100
AcDbEllipse
 10
273.895714
 20
171.38111
 30
0.0
 11
11.0
 21
1.237455205935816E-15
 31
0.0
210
0.0
220
0.0
230
1.0
 40
0.672414
 41
0.0
 42
2.860522572297235
  0
ELLIPSE
  5
1BF
330
E2
100
AcDbEntity
  8
0
  6
Continuous
 62
     0
370
     0
100
AcDbEllipse
 10
273.895714
 20
171.38111
 30
0.0
 11
11.0
 21
1.237455205935816E-15
 31
0.0
210
0.0
220
0.0
230
1.0
 40
0.672414
 41
2.860522572297235
 42
3.141592653589795
  0
ELLIPSE
  5
1C0
330
E2
100
AcDbEntity
  8
0
  6
Continuous
 62
     0
370
     0
100
AcDbEllipse
 10
273.895714
 20
151.396372
 30
0.0
 11
10.0
 21
1.874932130205782E-15
 31
0.0
210
0.0
220
0.0
230
1.0
 40
0.672414
 41
6.002115225887028
 42
9.143707879476821
  0
ELLIPSE
  5
1C1
330
E2
100
AcDbEntity
  8
0
  6
Continuous
 62
     0
370
     0
100
AcDbEllipse
 10
273.895714
 20
151.396372
 30
0.0
 11
10.0
 21
1.874932130205782E-15
 31
0.0
210
0.0
220
0.0
230
1.0
 40
0.672414
 41
2.860522572297235
 42
6.002115225887026
  0
LINE
  5
1C2
330
E2
100
AcDbEntity
  8
0
  6
Continuous
 62
     0
370
    30
100
AcDbLine
 10
262.895755
 20
171.381269
 30
0.0
 11
262.908003
 21
171.748764
 31
0.0
  0
LWPOLYLINE
  5
1C3
330
E2
100
AcDbEntity
  8
0
  6
Continuous
 62
     0
370
    30
100
AcDbPolyline
 90
       36
 70
     0
 43
0.0
 10
284.895721
 20
171.380981
 10
284.855713
 20
172.039322
 10
284.737152
 20
172.694016
 10
284.542236
 20
173.337662
 10
284.273102
 20
173.962952
 10
283.932739
 20
174.564606
 10
283.52475
 20
175.139542
 10
283.052856
 20
175.684753
 10
282.520782
 20
176.197296
 10
281.932678
 20
176.674805
 10
281.292969
 20
177.115189
 10
280.606079
 20
177.516434
 10
279.876404
 20
177.87648
 10
279.108368
 20
178.193314
 10
278.306488
 20
178.464905
 10
277.4758
 20
178.68988
 10
276.621948
 20
178.867264
 10
275.750549
 20
178.996109
 10
274.867188
 20
179.07547
 10
273.977478
 20
179.104584
 10
273.087189
 20
179.083679
 10
272.202087
 20
179.013245
 10
271.327911
 20
178.893768
 10
270.470428
 20
178.725723
 10
269.635437
 20
178.509628
 10
268.828247
 20
178.24649
 10
268.053589
 20
177.93808
 10
267.316162
 20
177.586212
 10
266.620667
 20
177.192719
 10
265.971741
 20
176.75943
 10
265.374054
 20
176.288208
 10
264.831726
 20
175.781479
 10
264.348633
 20
175.241898
 10
263.928589
 20
174.672165
 10
263.5755
 20
174.074951
 10
263.290741
 20
173.446991
  0
LWPOLYLINE
  5
1C4
330
E2
100
AcDbEntity
  8
0
  6
Continuous
 62
     0
370
    30
100
AcDbPolyline
 90
       36
 70
     0
 43
0.0
 10
262.895752
 20
152.136703
 10
262.935028
 20
151.484344
 10
263.051422
 20
150.835449
 10
263.242889
 20
150.197281
 10
263.507294
 20
149.576996
 10
263.841827
 20
148.979813
 10
264.24292
 20
148.408722
 10
264.706848
 20
147.866592
 10
265.230042
 20
147.356247
 10
265.808441
 20
146.880096
 10
266.437927
 20
146.440231
 10
267.114258
 20
146.038742
 10
267.833252
 20
145.677704
 10
268.590637
 20
145.359192
 10
269.381836
 20
145.084854
 10
270.201538
 20
144.855835
 10
271.044586
 20
144.673264
 10
271.905701
 20
144.538269
 10
272.779633
 20
144.451889
 10
273.660767
 20
144.414474
 10
274.543457
 20
144.425949
 10
275.421936
 20
144.486267
 10
276.290497
 20
144.595352
 10
277.143494
 20
144.752914
 10
277.975891
 20
144.957733
 10
278.782684
 20
145.208374
 10
279.558838
 20
145.503403
 10
280.299438
 20
145.8414
 10
280.999451
 20
146.220917
 10
281.654327
 20
146.640274
 10
282.260162
 20
147.097427
 10
282.812988
 20
147.590302
 10
283.30896
 20
148.11676
 10
283.744171
 20
148.673813
 10
284.114746
 20
149.257675
 10
284.421844
 20
149.876251
  0
LINE
  5
1C5
330
E2
100
AcDbEntity
  8
0
  6
Continuous
 62
     0
370
    30
100
AcDbLine
 10
284.895715
 20
152.136414
 30
0.0
 11
284.883475
 21
151.769204
 31
0.0
  0
ARC
  5
1C6
330
E2
100
AcDbEntity
  8
0
  6
Continuous
 62
     0
370
    30
100
AcDbCircle
 10
279.171299
 20
152.156872
 30
0.0
 40
5.724453105535241
100
AcDbArc
 50
336.521897
 51
359.795222
  0
LINE
  5
1C7
330
E2
100
AcDbEntity
  8
0
  6
Continuous
 62
     0
370
    30
100
AcDbLine
 10
284.895714
 20
171.38111
 30
0.0
 11
284.895714
 21
152.136548
 31
0.0
  0
LINE
  5
1C8
330
E2
100
AcDbEntity
  8
0
  6
Continuous
 62
     0
370
    30
100
AcDbLine
 10
262.895714
 20
171.38111
 30
0.0
 11
262.895714
 21
152.136548
 31
0.0
  0
ENDBLK
  5
1CA
330
E2
100
AcDbEntity
  8
0
100
AcDbBlockEnd
  0
BLOCK
  5
277
330
1CC
100
AcDbEntity
  8
0
100
AcDbBlockBegin
  2
c
 70
     0
 10
107.140549
 20
85.826683
 30
0.0
  3
c
  1

  0
LINE
  5
1CD
330
1CC
100
AcDbEntity
  8
0
  6
Continuous
 62
     0
370
    30
100
AcDbLine
 10
567.717297
 20
437.365349
 30
0.0
 11
565.460092
 21
437.365349
 31
0.0
  0
LINE
  5
1CE
330
1CC
100
AcDbEntity
  8
0
  6
Continuous
 62
     0
370
    30
100
AcDbLine
 10
567.717297
 20
415.365349
 30
0.0
 11
565.460092
 21
415.365349
 31
0.0
  0
ARC
  5
1CF
330
1CC
100
AcDbEntity
  8
0
  6
Continuous
 62
     0
370
    30
100
AcDbCircle
 10
548.718702
 20
484.365771
 30
0.0
 40
47.00063261655043
100
AcDbArc
 50
132.255251
 51
260.851281
  0
ARC
  5
1D0
330
1CC
100
AcDbEntity
  8
0
  6
Continuous
 62
     0
370
    30
100
AcDbCircle
 10
548.718349
 20
484.365784
 30
0.0
 40
69.00038531946561
100
AcDbArc
 50
132.254527
 51
263.062779
  0
LINE
  5
1D1
330
1CC
100
AcDbEntity
  8
0
  6
Continuous
 62
     0
370
     0
100
AcDbLine
 10
566.354575
 20
417.299329
 30
0.0
 11
566.354575
 21
416.901063
 31
0.0
  0
LINE
  5
1D2
330
1CC
100
AcDbEntity
  8
0
  6
Continuous
 62
     0
370
     0
100
AcDbLine
 10
566.354575
 20
435.829635
 30
0.0
 11
566.354575
 21
417.299329
 31
0.0
  0
LINE
  5
1D3
330
1CC
100
AcDbEntity
  8
0
  6
Continuous
 62
     0
370
    30
100
AcDbLine
 10
561.217302
 20
427.956301
 30
0.0
 11
561.563784
 21
428.899284
 31
0.0
  0
LINE
  5
1D4
330
1CC
100
AcDbEntity
  8
0
  6
Continuous
 62
     0
370
     0
100
AcDbLine
 10
561.217301
 20
427.956301
 30
0.0
 11
561.217301
 21
414.714236
 31
0.0
  0
ARC
  5
1D5
330
1CC
100
AcDbEntity
  8
0
  6
Continuous
 62
     0
370
    30
100
AcDbCircle
 10
560.500928
 20
413.705149
 30
0.0
 40
1.237516722307813
100
AcDbArc
 50
10.607499
 51
54.628206
  0
LINE
  5
1D6
330
1CC
100
AcDbEntity
  8
0
  6
Continuous
 62
     0
370
     0
100
AcDbLine
 10
571.057
 20
420.378255
 30
0.0
 11
571.057
 21
420.115245
 31
0.0
  0
LINE
  5
1D7
330
1CC
100
AcDbEntity
  8
0
  6
Continuous
 62
     0
370
     0
100
AcDbLine
 10
571.057
 20
432.615452
 30
0.0
 11
571.057
 21
420.378255
 31
0.0
  0
ELLIPSE
  5
1D8
330
1CC
100
AcDbEntity
  8
0
  6
Continuous
 62
     0
370
     0
100
AcDbEllipse
 10
556.717299
 20
447.319197
 30
0.0
 11
-4.999999999979931
 21
-6.549009873598866E-8
 31
0.0
210
0.0
220
0.0
230
-1.0
 40
0.287038
 41
0.000000045631642
 42
3.141592699221403
  0
LINE
  5
1D9
330
1CC
100
AcDbEntity
  8
0
  6
Continuous
 62
     0
370
    30
100
AcDbLine
 10
551.717299
 20
441.243881
 30
0.0
 11
551.717299
 21
447.319197
 31
0.0
  0
ELLIPSE
  5
1DA
330
1CC
100
AcDbEntity
  8
0
  6
Continuous
 62
     0
370
     0
100
AcDbEllipse
 10
556.717299
 20
453.244784
 30
0.0
 11
-7.142857142828414
 21
-9.355728390855446E-8
 31
0.0
210
0.0
220
0.0
230
-1.0
 40
0.287038
 41
6.045028985086973
 42
6.28318535281119
  0
ELLIPSE
  5
1DB
330
1CC
100
AcDbEntity
  8
0
  6
Continuous
 62
     0
370
     0
100
AcDbEllipse
 10
556.717299
 20
453.244784
 30
0.0
 11
-7.142857142828414
 21
-9.355728390855446E-8
 31
0.0
210
0.0
220
0.0
230
-1.0
 40
0.287038
 41
3.14159269922141
 42
3.379749066945725
  0
ELLIPSE
  5
1DC
330
1CC
100
AcDbEntity
  8
0
  6
Continuous
 62
     0
370
     0
100
AcDbEllipse
 10
556.717299
 20
453.244784
 30
0.0
 11
-7.142857142828414
 21
-9.355728390855446E-8
 31
0.0
210
0.0
220
0.0
230
-1.0
 40
0.287038
 41
0.0000000456316073
 42
3.14159269922141
  0
ELLIPSE
  5
1DD
330
1CC
100
AcDbEntity
  8
0
  6
Continuous
 62
     0
370
     0
100
AcDbEllipse
 10
556.717299
 20
458.759492
 30
0.0
 11
-6.285714285688536
 21
-8.233040983952179E-8
 31
0.0
210
0.0
220
0.0
230
-1.0
 40
0.287038
 41
0.4448632510996456
 42
2.696728395544624
  0
ELLIPSE
  5
1DE
330
1CC
100
AcDbEntity
  8
0
  6
Continuous
 62
     0
370
     0
100
AcDbEllipse
 10
556.7173
 20
405.411501
 30
0.0
 11
4.999999999979931
 21
6.549009873598861E-8
 31
0.0
210
0.0
220
0.0
230
1.0
 40
0.287038
 41
-0.0000000456315972
 42
3.141592607958181
  0
LINE
  5
1DF
330
1CC
100
AcDbEntity
  8
0
  6
Continuous
 62
     0
370
    30
100
AcDbLine
 10
551.717299
 20
413.9124
 30
0.0
 11
551.7173
 21
405.411501
 31
0.0
  0
LWPOLYLINE
  5
1E0
330
1CC
100
AcDbEntity
  8
0
  6
Continuous
 62
     0
370
    30
100
AcDbPolyline
 90
       24
 70
     0
 43
0.0
 10
561.217285
 20
414.714233
 10
560.933777
 20
414.952698
 10
560.594299
 20
415.191559
 10
560.203613
 20
415.423798
 10
559.766357
 20
415.642487
 10
559.287354
 20
415.840729
 10
558.771851
 20
416.011444
 10
558.226074
 20
416.148071
 10
557.657227
 20
416.24469
 10
557.073364
 20
416.296783
 10
556.483765
 20
416.301727
 10
555.897888
 20
416.259338
 10
555.325195
 20
416.1716
 10
554.773926
 20
416.042908
 10
554.251648
 20
415.878723
 10
553.764587
 20
415.685669
 10
553.318237
 20
415.470612
 10
552.91748
 20
415.240601
 10
552.567017
 20
415.002625
 10
552.271545
 20
414.76358
 10
552.035217
 20
414.529907
 10
551.862
 20
414.3078
 10
551.75531
 20
414.103058
 10
551.717285
 20
413.912415
  0
ELLIPSE
  5
1E1
330
1CC
100
AcDbEntity
  8
0
  6
Continuous
 62
     0
370
     0
100
AcDbEllipse
 10
556.7173
 20
399.485913
 30
0.0
 11
7.142857142828414
 21
9.355728390855438E-8
 31
0.0
210
0.0
220
0.0
230
1.0
 40
0.287038
 41
-0.0000000456316069
 42
3.141592607958186
  0
ELLIPSE
  5
1E2
330
1CC
100
AcDbEntity
  8
0
  6
Continuous
 62
     0
370
     0
100
AcDbEllipse
 10
556.7173
 20
393.971206
 30
0.0
 11
6.285714285688536
 21
8.233040983952172E-8
 31
0.0
210
0.0
220
0.0
230
1.0
 40
0.287038
 41
-0.0000000456315998
 42
3.141592607958186
  0
ELLIPSE
  5
1E3
330
1CC
100
AcDbEntity
  8
0
  6
Continuous
 62
     0
370
     0
100
AcDbEllipse
 10
556.7173
 20
393.971206
 30
0.0
 11
6.285714285688536
 21
8.233040983952172E-8
 31
0.0
210
0.0
220
0.0
230
1.0
 40
0.287038
 41
5.838318988107524
 42
6.283185261547986
  0
ELLIPSE
  5
1E4
330
1CC
100
AcDbEntity
  8
0
  6
Continuous
 62
     0
370
     0
100
AcDbEllipse
 10
556.7173
 20
393.971206
 30
0.0
 11
6.285714285688536
 21
8.233040983952172E-8
 31
0.0
210
0.0
220
0.0
230
1.0
 40
0.287038
 41
3.141592607958198
 42
3.58645795541969
  0
ARC
  5
1E5
330
1CC
100
AcDbEntity
  8
0
  6
Continuous
 62
     0
370
    30
100
AcDbCircle
 10
556.700016
 20
429.96918
 30
0.0
 40
4.945457454722905
100
AcDbArc
 50
192.514525
 51
335.9825
  0
ELLIPSE
  5
1E6
330
1CC
100
AcDbEntity
  8
0
  6
Continuous
 62
     0
370
     0
100
AcDbEllipse
 10
556.717301
 20
436.072181
 30
0.0
 11
-6.28571428568847
 21
9.169342511737704E-7
 31
0.0
210
0.0
220
0.0
230
1.0
 40
0.957919
 41
3.14159280587395
 42
6.283185459463744
  0
ELLIPSE
  5
1E7
330
1CC
100
AcDbEntity
  8
0
  6
Continuous
 62
     0
370
     0
100
AcDbEllipse
 10
556.717301
 20
436.072181
 30
0.0
 11
-6.28571428568847
 21
9.169342511737704E-7
 31
0.0
210
0.0
220
0.0
230
1.0
 40
0.957919
 41
0.0000001522841604
 42
3.14159280587395
  0
LINE
  5
1E8
330
1CC
100
AcDbEntity
  8
0
  6
Continuous
 62
     0
370
     0
100
AcDbLine
 10
544.717301
 20
413.365346
 30
0.0
 11
544.717301
 21
429.872097
 31
0.0
  0
LINE
  5
1E9
330
1CC
100
AcDbEntity
  8
0
  6
Continuous
 62
     0
370
     0
100
AcDbLine
 10
544.717301
 20
429.872097
 30
0.0
 11
544.717301
 21
439.365352
 31
0.0
  0
LINE
  5
1EA
330
1CC
100
AcDbEntity
  8
0
  6
Continuous
 62
     0
370
    30
100
AcDbLine
 10
539.717301
 20
428.523348
 30
0.0
 11
539.717301
 21
434.365352
 31
0.0
  0
LINE
  5
1EB
330
1CC
100
AcDbEntity
  8
0
  6
Continuous
 62
     0
370
    30
100
AcDbLine
 10
539.717301
 20
418.365346
 30
0.0
 11
539.717301
 21
428.523348
 31
0.0
  0
LINE
  5
1EC
330
1CC
100
AcDbEntity
  8
0
  6
Continuous
 62
     0
370
    30
100
AcDbLine
 10
544.717301
 20
439.365349
 30
0.0
 11
549.98846
 21
439.365349
 31
0.0
  0
LINE
  5
1ED
330
1CC
100
AcDbEntity
  8
0
  6
Continuous
 62
     0
370
    30
100
AcDbLine
 10
544.717301
 20
413.365349
 30
0.0
 11
551.717299
 21
413.365349
 31
0.0
  0
ARC
  5
1EE
330
1CC
100
AcDbEntity
  8
0
  6
Continuous
 62
     0
370
    30
100
AcDbCircle
 10
544.718214
 20
418.366258
 30
0.0
 40
5.00091301470947
100
AcDbArc
 50
180.01046
 51
269.98954
  0
ARC
  5
1EF
330
1CC
100
AcDbEntity
  8
0
  6
Continuous
 62
     0
370
    30
100
AcDbCircle
 10
544.718214
 20
434.364439
 30
0.0
 40
5.000913014709786
100
AcDbArc
 50
90.01046
 51
179.98954
  0
CIRCLE
  5
1F0
330
1CC
100
AcDbEntity
  8
0
  6
Continuous
 62
     0
370
    30
100
AcDbCircle
 10
556.705259
 20
435.122226
 30
0.0
 40
7.923577784713764
  0
ARC
  5
1F1
330
1CC
100
AcDbEntity
  8
0
  6
Continuous
 62
     0
370
    30
100
AcDbCircle
 10
556.7173
 20
402.61929
 30
0.0
 40
11.00067325499543
100
AcDbArc
 50
238.950457
 51
301.049528
  0
ARC
  5
1F2
330
1CC
100
AcDbEntity
  8
0
  6
Continuous
 62
     0
370
    30
100
AcDbCircle
 10
560.268381
 20
397.09783
 30
0.0
 40
4.443001689205567
100
AcDbArc
 50
298.541361
 51
40.267513
  0
ARC
  5
1F3
330
1CC
100
AcDbEntity
  8
0
  6
Continuous
 62
     0
370
    30
100
AcDbCircle
 10
553.136835
 20
397.099457
 30
0.0
 40
4.41956494104699
100
AcDbArc
 50
139.502364
 51
179.789707
  0
ARC
  5
1F4
330
1CC
100
AcDbEntity
  8
0
  6
Continuous
 62
     0
370
    30
100
AcDbCircle
 10
553.293291
 20
397.179966
 30
0.0
 40
4.576442700445689
100
AcDbArc
 50
180.804883
 51
240.552346
  0
ARC
  5
1F5
330
1CC
100
AcDbEntity
  8
0
  6
Continuous
 62
     0
370
    30
100
AcDbCircle
 10
570.187491
 20
405.365809
 30
0.0
 40
8.470314314063291
100
AcDbArc
 50
179.690926
 51
219.573944
  0
ARC
  5
1F6
330
1CC
100
AcDbEntity
  8
0
  6
Continuous
 62
     0
370
    30
100
AcDbCircle
 10
543.247108
 20
405.365809
 30
0.0
 40
8.470314352427593
100
AcDbArc
 50
320.42606
 51
0.309077
  0
LINE
  5
1F7
330
1CC
100
AcDbEntity
  8
0
  6
Continuous
 62
     0
370
    30
100
AcDbLine
 10
561.717299
 20
413.934216
 30
0.0
 11
561.7173
 21
405.411501
 31
0.0
  0
ARC
  5
1F8
330
1CC
100
AcDbEntity
  8
0
  6
Continuous
 62
     0
370
    30
100
AcDbCircle
 10
556.900156
 20
417.660116
 30
0.0
 40
7.829246634178201
100
AcDbArc
 50
307.971926
 51
332.376465
  0
ARC
  5
1F9
330
1CC
100
AcDbEntity
  8
0
  6
Continuous
 62
     0
370
    30
100
AcDbCircle
 10
556.578798
 20
417.695726
 30
0.0
 40
7.885730113833909
100
AcDbArc
 50
213.308098
 51
231.939491
  0
ARC
  5
1FA
330
1CC
100
AcDbEntity
  8
0
  6
Continuous
 62
     0
370
    30
100
AcDbCircle
 10
556.717299
 20
450.111407
 30
0.0
 40
11.00067325499647
100
AcDbArc
 50
58.950472
 51
121.049543
  0
ARC
  5
1FB
330
1CC
100
AcDbEntity
  8
0
  6
Continuous
 62
     0
370
    30
100
AcDbCircle
 10
560.26838
 20
455.632868
 30
0.0
 40
4.443001668902967
100
AcDbArc
 50
319.732485
 51
61.458637
  0
ARC
  5
1FC
330
1CC
100
AcDbEntity
  8
0
  6
Continuous
 62
     0
370
    30
100
AcDbCircle
 10
553.136834
 20
455.63124
 30
0.0
 40
4.419564918463509
100
AcDbArc
 50
180.210291
 51
220.497634
  0
ARC
  5
1FD
330
1CC
100
AcDbEntity
  8
0
  6
Continuous
 62
     0
370
    30
100
AcDbCircle
 10
553.29329
 20
455.550732
 30
0.0
 40
4.576442757845964
100
AcDbArc
 50
119.447653
 51
179.195115
  0
ARC
  5
1FE
330
1CC
100
AcDbEntity
  8
0
  6
Continuous
 62
     0
370
    30
100
AcDbCircle
 10
570.18749
 20
447.364889
 30
0.0
 40
8.47031435242761
100
AcDbArc
 50
140.42606
 51
180.309077
  0
ARC
  5
1FF
330
1CC
100
AcDbEntity
  8
0
  6
Continuous
 62
     0
370
    30
100
AcDbCircle
 10
543.247108
 20
447.364888
 30
0.0
 40
8.470314314062872
100
AcDbArc
 50
359.690926
 51
39.573944
  0
LINE
  5
200
330
1CC
100
AcDbEntity
  8
0
  6
Continuous
 62
     0
370
    30
100
AcDbLine
 10
561.717299
 20
441.242473
 30
0.0
 11
561.717299
 21
447.319197
 31
0.0
  0
LINE
  5
201
330
1CC
100
AcDbEntity
  8
0
  6
Continuous
 62
     0
370
    30
100
AcDbLine
 10
571.057
 20
432.615452
 30
0.0
 11
572.717301
 21
432.620795
 31
0.0
  0
LINE
  5
202
330
1CC
100
AcDbEntity
  8
0
  6
Continuous
 62
     0
370
    30
100
AcDbLine
 10
571.057
 20
420.115245
 30
0.0
 11
572.717301
 21
420.109903
 31
0.0
  0
ARC
  5
203
330
1CC
100
AcDbEntity
  8
0
  6
Continuous
 62
     0
370
    30
100
AcDbCircle
 10
571.023354
 20
437.613198
 30
0.0
 40
4.997858748697905
100
AcDbArc
 50
200.907819
 51
270.385724
  0
ARC
  5
204
330
1CC
100
AcDbEntity
  8
0
  6
Continuous
 62
     0
370
    30
100
AcDbCircle
 10
571.023354
 20
415.1175
 30
0.0
 40
4.99785874869779
100
AcDbArc
 50
89.614276
 51
159.092181
  0
ARC
  5
205
330
1CC
100
AcDbEntity
  8
0
  6
Continuous
 62
     0
370
    30
100
AcDbCircle
 10
561.222093
 20
418.860359
 30
0.0
 40
5.493743309181353
100
AcDbArc
 50
275.171668
 51
339.105928
  0
ARC
  5
206
330
1CC
100
AcDbEntity
  8
0
  6
Continuous
 62
     0
370
    30
100
AcDbCircle
 10
561.224139
 20
433.870162
 30
0.0
 40
5.491894552792621
100
AcDbArc
 50
20.903409
 51
61.591032
  0
ELLIPSE
  5
207
330
1CC
100
AcDbEntity
  8
0
  6
Continuous
 62
     0
370
     0
100
AcDbEllipse
 10
556.717292
 20
414.180786
 30
0.0
 11
6.285714285688496
 21
7.113466402258449E-7
 31
0.0
210
0.0
220
0.0
230
1.0
 40
0.932834
 41
5.632146128375987
 42
5.976955434641444
  0
ELLIPSE
  5
208
330
1CC
100
AcDbEntity
  8
0
  6
Continuous
 62
     0
370
     0
100
AcDbEllipse
 10
556.717292
 20
414.180786
 30
0.0
 11
6.285714285688496
 21
7.113466402258449E-7
 31
0.0
210
0.0
220
0.0
230
1.0
 40
0.932834
 41
3.447829208684061
 42
3.792631589758804
  0
ELLIPSE
  5
209
330
1CC
100
AcDbEntity
  8
0
  6
Continuous
 62
     0
370
     0
100
AcDbEllipse
 10
556.717291
 20
452.540888
 30
0.0
 11
-7.142857142828413
 21
1.205964479361373E-7
 31
0.0
210
0.0
220
0.0
230
1.0
 40
0.360307
 41
0.3089856085055267
 42
0.6117991846831501
  0
ELLIPSE
  5
20A
330
1CC
100
AcDbEntity
  8
0
  6
Continuous
 62
     0
370
     0
100
AcDbEllipse
 10
556.71729
 20
400.18981
 30
0.0
 11
7.142857142828413
 21
-1.205964479361373E-7
 31
0.0
210
0.0
220
0.0
230
-1.0
 40
0.360307
 41
2.995272961483067
 42
3.14159260673107
  0
ELLIPSE
  5
20B
330
1CC
100
AcDbEntity
  8
0
  6
Continuous
 62
     0
370
     0
100
AcDbEllipse
 10
556.71729
 20
400.18981
 30
0.0
 11
7.142857142828413
 21
-1.205964479361373E-7
 31
0.0
210
0.0
220
0.0
230
-1.0
 40
0.360307
 41
-0.0000000468587062
 42
0.1463153833889083
  0
ELLIPSE
  5
20C
330
1CC
100
AcDbEntity
  8
0
  6
Continuous
 62
     0
370
     0
100
AcDbEllipse
 10
556.71729
 20
400.18981
 30
0.0
 11
7.142857142828413
 21
-1.205964479361373E-7
 31
0.0
210
0.0
220
0.0
230
-1.0
 40
0.360307
 41
5.974198668009045
 42
6.28318526032088
  0
ELLIPSE
  5
20D
330
1CC
100
AcDbEntity
  8
0
  6
Continuous
 62
     0
370
     0
100
AcDbEllipse
 10
556.71729
 20
400.18981
 30
0.0
 11
7.142857142828413
 21
-1.205964479361373E-7
 31
0.0
210
0.0
220
0.0
230
-1.0
 40
0.360307
 41
3.14159260673109
 42
3.450578953085673
  0
ARC
  5
20E
330
1CC
100
AcDbEntity
  8
0
  6
Continuous
 62
     0
370
    30
100
AcDbCircle
 10
553.375985
 20
397.856382
 30
0.0
 40
4.658763811167845
100
AcDbArc
 50
138.021108
 51
179.689315
  0
ARC
  5
20F
330
1CC
100
AcDbEntity
  8
0
  6
Continuous
 62
     0
370
    30
100
AcDbCircle
 10
560.092638
 20
397.873084
 30
0.0
 40
4.622296537103933
100
AcDbArc
 50
355.313178
 51
42.107233
  0
ARC
  5
210
330
1CC
100
AcDbEntity
  8
0
  6
Continuous
 62
     0
370
    30
100
AcDbCircle
 10
544.194253
 20
405.850873
 30
0.0
 40
7.516639567621663
100
AcDbArc
 50
319.532291
 51
356.659169
  0
ARC
  5
211
330
1CC
100
AcDbEntity
  8
0
  6
Continuous
 62
     0
370
    30
100
AcDbCircle
 10
569.240327
 20
405.850873
 30
0.0
 40
7.516639665163324
100
AcDbArc
 50
183.340828
 51
220.467705
  0
LWPOLYLINE
  5
212
330
1CC
100
AcDbEntity
  8
0
  6
Continuous
 62
     0
370
    30
100
AcDbPolyline
 90
        8
 70
     0
 43
0.0
 10
551.717285
 20
443.4021
 10
551.182739
 20
442.950317
 10
550.691162
 20
442.453827
 10
550.24707
 20
441.915833
 10
549.853943
 20
441.340546
 10
549.514648
 20
440.732727
 10
549.232178
 20
440.097107
 10
548.988831
 20
439.365356
  0
LWPOLYLINE
  5
213
330
1CC
100
AcDbEntity
  8
0
  6
Continuous
 62
     0
370
    30
100
AcDbPolyline
 90
        9
 70
     0
 43
0.0
 10
564.676941
 20
438.141754
 10
564.556885
 20
438.90567
 10
564.359436
 20
439.6539
 10
564.086365
 20
440.378143
 10
563.740479
 20
441.070892
 10
563.325989
 20
441.7258
 10
562.84729
 20
442.336609
 10
562.309204
 20
442.8974
 10
561.717285
 20
443.403473
  0
ARC
  5
214
330
1CC
100
AcDbEntity
  8
0
  6
Continuous
 62
     0
370
    30
100
AcDbCircle
 10
553.375986
 20
454.874315
 30
0.0
 40
4.658763853717477
100
AcDbArc
 50
180.310686
 51
221.978894
  0
ARC
  5
215
330
1CC
100
AcDbEntity
  8
0
  6
Continuous
 62
     0
370
    30
100
AcDbCircle
 10
569.628108
 20
446.785218
 30
0.0
 40
7.90960030199123
100
AcDbArc
 50
155.777743
 51
176.138711
  0
ARC
  5
216
330
1CC
100
AcDbEntity
  8
0
  6
Continuous
 62
     0
370
    30
100
AcDbCircle
 10
544.2373
 20
446.906539
 30
0.0
 40
7.466557221117287
100
AcDbArc
 50
3.154518
 51
40.526139
  0
LWPOLYLINE
  5
217
330
1CC
100
AcDbEntity
  8
0
  6
Continuous
 62
     0
370
    30
100
AcDbPolyline
 90
        8
 70
     0
 43
0.0
 10
551.717285
 20
409.328583
 10
551.182739
 20
409.780396
 10
550.691162
 20
410.276855
 10
550.24707
 20
410.81488
 10
549.853943
 20
411.390167
 10
549.514648
 20
411.997986
 10
549.232178
 20
412.633575
 10
548.988892
 20
413.365356
  0
LWPOLYLINE
  5
218
330
1CC
100
AcDbEntity
  8
0
  6
Continuous
 62
     0
370
    30
100
AcDbPolyline
 90
        9
 70
     0
 43
0.0
 10
564.676941
 20
414.588928
 10
564.556885
 20
413.825043
 10
564.359436
 20
413.076813
 10
564.086365
 20
412.352539
 10
563.740479
 20
411.65979
 10
563.325989
 20
411.004883
 10
562.84729
 20
410.394104
 10
562.309204
 20
409.833282
 10
561.717285
 20
409.327209
  0
LINE
  5
219
330
1CC
100
AcDbEntity
  8
0
  6
Continuous
 62
     0
370
     0
100
AcDbLine
 10
607.514913
 20
426.365349
 30
0.0
 11
607.514913
 21
452.092337
 31
0.0
  0
LINE
  5
21A
330
1CC
100
AcDbEntity
  8
0
  6
Continuous
 62
     0
370
     0
100
AcDbLine
 10
607.514913
 20
400.638361
 30
0.0
 11
607.514913
 21
426.365349
 31
0.0
  0
LINE
  5
21B
330
1CC
100
AcDbEntity
  8
0
  6
Continuous
 62
     0
370
     0
100
AcDbLine
 10
601.70381
 20
404.302206
 30
0.0
 11
601.70381
 21
426.365349
 31
0.0
  0
LINE
  5
21C
330
1CC
100
AcDbEntity
  8
0
  6
Continuous
 62
     0
370
     0
100
AcDbLine
 10
601.70381
 20
426.365349
 30
0.0
 11
601.70381
 21
448.428491
 31
0.0
  0
LINE
  5
21D
330
1CC
100
AcDbEntity
  8
0
  6
Continuous
 62
     0
370
    30
100
AcDbLine
 10
572.717301
 20
426.365349
 30
0.0
 11
572.717301
 21
436.686976
 31
0.0
  0
LINE
  5
21E
330
1CC
100
AcDbEntity
  8
0
  6
Continuous
 62
     0
370
    30
100
AcDbLine
 10
572.717301
 20
416.043722
 30
0.0
 11
572.717301
 21
426.365349
 31
0.0
  0
LINE
  5
21F
330
1CC
100
AcDbEntity
  8
0
  6
Continuous
 62
     0
370
     0
100
AcDbLine
 10
579.356293
 20
426.365349
 30
0.0
 11
579.356293
 21
444.570354
 31
0.0
  0
LINE
  5
220
330
1CC
100
AcDbEntity
  8
0
  6
Continuous
 62
     0
370
     0
100
AcDbLine
 10
579.356293
 20
408.160344
 30
0.0
 11
579.356293
 21
426.365349
 31
0.0
  0
LINE
  5
221
330
1CC
100
AcDbEntity
  8
0
  6
Continuous
 62
     0
370
    30
100
AcDbLine
 10
614.117301
 20
398.326246
 30
0.0
 11
614.117301
 21
426.365349
 31
0.0
  0
LINE
  5
222
330
1CC
100
AcDbEntity
  8
0
  6
Continuous
 62
     0
370
    30
100
AcDbLine
 10
614.117301
 20
426.365349
 30
0.0
 11
614.117301
 21
454.404452
 31
0.0
  0
LINE
  5
223
330
1CC
100
AcDbEntity
  8
0
  6
Continuous
 62
     0
370
     0
100
AcDbLine
 10
612.985295
 20
426.365349
 30
0.0
 11
612.985295
 21
455.3957
 31
0.0
  0
LINE
  5
224
330
1CC
100
AcDbEntity
  8
0
  6
Continuous
 62
     0
370
     0
100
AcDbLine
 10
612.985295
 20
397.334997
 30
0.0
 11
612.985295
 21
426.365349
 31
0.0
  0
ARC
  5
225
330
1CC
100
AcDbEntity
  8
0
  6
Continuous
 62
     0
370
    30
100
AcDbCircle
 10
613.116857
 20
398.326753
 30
0.0
 40
1.000443885944558
100
AcDbArc
 50
262.443477
 51
359.967782
  0
ARC
  5
226
330
1CC
100
AcDbEntity
  8
0
  6
Continuous
 62
     0
370
    30
100
AcDbCircle
 10
613.116857
 20
454.403945
 30
0.0
 40
1.000443885944432
100
AcDbArc
 50
0.032218
 51
97.556523
  0
ARC
  5
227
330
1CC
100
AcDbEntity
  8
0
  6
Continuous
 62
     0
370
    30
100
AcDbCircle
 10
614.043352
 20
447.462387
 30
0.0
 40
8.003558644068278
100
AcDbArc
 50
97.596642
 51
144.655846
  0
ARC
  5
228
330
1CC
100
AcDbEntity
  8
0
  6
Continuous
 62
     0
370
    30
100
AcDbCircle
 10
614.043352
 20
405.268311
 30
0.0
 40
8.003558644068573
100
AcDbArc
 50
215.344154
 51
262.403358
  0
LINE
  5
229
330
1CC
100
AcDbEntity
  8
0
  6
Continuous
 62
     0
370
    30
100
AcDbLine
 10
579.356293
 20
444.570354
 30
0.0
 11
601.70381
 21
448.428491
 31
0.0
  0
LINE
  5
22A
330
1CC
100
AcDbEntity
  8
0
  6
Continuous
 62
     0
370
    30
100
AcDbLine
 10
579.356293
 20
408.160344
 30
0.0
 11
601.70381
 21
404.302206
 31
0.0
  0
ARC
  5
22B
330
1CC
100
AcDbEntity
  8
0
  6
Continuous
 62
     0
370
    30
100
AcDbCircle
 10
580.718472
 20
436.68599
 30
0.0
 40
8.001170850919815
100
AcDbArc
 50
99.802206
 51
179.985559
  0
ARC
  5
22C
330
1CC
100
AcDbEntity
  8
0
  6
Continuous
 62
     0
370
    30
100
AcDbCircle
 10
580.718472
 20
416.044708
 30
0.0
 40
8.00117085091996
100
AcDbArc
 50
180.014441
 51
260.197794
  0
ARC
  5
22D
330
1CC
100
AcDbEntity
  8
0
  6
Continuous
 62
     0
370
    30
100
AcDbCircle
 10
600.170565
 20
457.30064
 30
0.0
 40
9.003658584641776
100
AcDbArc
 50
279.80476
 51
324.657331
  0
ARC
  5
22E
330
1CC
100
AcDbEntity
  8
0
  6
Continuous
 62
     0
370
    30
100
AcDbCircle
 10
600.170565
 20
395.430058
 30
0.0
 40
9.003658584641714
100
AcDbArc
 50
35.342669
 51
80.19524
  0
LINE
  5
22F
330
1CC
100
AcDbEntity
  8
0
  6
Continuous
 62
     0
370
    30
100
AcDbLine
 10
526.566725
 20
524.363501
 30
0.0
 11
526.210513
 21
524.75561
 31
0.0
  0
LINE
  5
230
330
1CC
100
AcDbEntity
  8
0
  6
Continuous
 62
     0
370
    30
100
AcDbLine
 10
526.210513
 20
524.75561
 30
0.0
 11
508.411553
 21
544.348238
 31
0.0
  0
LINE
  5
231
330
1CC
100
AcDbEntity
  8
0
  6
Continuous
 62
     0
370
     0
100
AcDbLine
 10
526.069292
 20
522.680294
 30
0.0
 11
506.292669
 21
544.449881
 31
0.0
  0
LINE
  5
232
330
1CC
100
AcDbEntity
  8
0
  6
Continuous
 62
     0
370
     0
100
AcDbLine
 10
526.465083
 20
522.244617
 30
0.0
 11
526.069292
 21
522.680294
 31
0.0
  0
LINE
  5
233
330
1CC
100
AcDbEntity
  8
0
  6
Continuous
 62
     0
370
    30
100
AcDbLine
 10
529.897515
 20
527.389363
 30
0.0
 11
529.541303
 21
527.781472
 31
0.0
  0
LINE
  5
234
330
1CC
100
AcDbEntity
  8
0
  6
Continuous
 62
     0
370
    30
100
AcDbLine
 10
529.541303
 20
527.781472
 30
0.0
 11
511.742342
 21
547.3741
 31
0.0
  0
LINE
  5
235
330
1CC
100
AcDbEntity
  8
0
  6
Continuous
 62
     0
370
    30
100
AcDbLine
 10
518.122469
 20
518.043332
 30
0.0
 11
517.792643
 21
518.406395
 31
0.0
  0
LINE
  5
236
330
1CC
100
AcDbEntity
  8
0
  6
Continuous
 62
     0
370
    30
100
AcDbLine
 10
517.792643
 20
518.406395
 30
0.0
 11
501.312124
 21
536.547718
 31
0.0
  0
LINE
  5
237
330
1CC
100
AcDbEntity
  8
0
  6
Continuous
 62
     0
370
     0
100
AcDbLine
 10
522.193434
 20
521.741607
 30
0.0
 11
521.863608
 21
522.104671
 31
0.0
  0
LINE
  5
238
330
1CC
100
AcDbEntity
  8
0
  6
Continuous
 62
     0
370
     0
100
AcDbLine
 10
521.863608
 20
522.104671
 30
0.0
 11
505.383089
 21
540.245994
 31
0.0
  0
LINE
  5
239
330
1CC
100
AcDbEntity
  8
0
  6
Continuous
 62
     0
370
    30
100
AcDbLine
 10
523.606023
 20
521.673846
 30
0.0
 11
523.249811
 21
522.065955
 31
0.0
  0
LINE
  5
23A
330
1CC
100
AcDbEntity
  8
0
  6
Continuous
 62
     0
370
    30
100
AcDbLine
 10
523.249811
 20
522.065955
 30
0.0
 11
505.450851
 21
541.658583
 31
0.0
  0
LINE
  5
23B
330
1CC
100
AcDbEntity
  8
0
  6
Continuous
 62
     0
370
     0
100
AcDbLine
 10
525.724907
 20
521.572203
 30
0.0
 11
525.329116
 21
522.00788
 31
0.0
  0
LINE
  5
23C
330
1CC
100
AcDbEntity
  8
0
  6
Continuous
 62
     0
370
     0
100
AcDbLine
 10
525.329116
 20
522.00788
 30
0.0
 11
505.552494
 21
543.777467
 31
0.0
  0
LINE
  5
23D
330
1CC
100
AcDbEntity
  8
0
  6
Continuous
 62
     0
370
    30
100
AcDbLine
 10
526.465083
 20
522.244617
 30
0.0
 11
525.724907
 21
521.572203
 31
0.0
  0
LINE
  5
23E
330
1CC
100
AcDbEntity
  8
0
  6
Continuous
 62
     0
370
    30
100
AcDbLine
 10
506.292669
 20
544.449881
 30
0.0
 11
505.552494
 21
543.777467
 31
0.0
  0
ARC
  5
23F
330
1CC
100
AcDbEntity
  8
0
  6
Continuous
 62
     0
370
    30
100
AcDbCircle
 10
524.716283
 20
522.682408
 30
0.0
 40
1.499957648981112
100
AcDbArc
 50
222.260168
 51
310.616667
  0
ARC
  5
240
330
1CC
100
AcDbEntity
  8
0
  6
Continuous
 62
     0
370
    30
100
AcDbCircle
 10
506.561055
 20
542.667206
 30
0.0
 40
1.499957648981801
100
AcDbArc
 50
133.890607
 51
222.247106
  0
ARC
  5
241
330
1CC
100
AcDbEntity
  8
0
  6
Continuous
 62
     0
370
    30
100
AcDbCircle
 10
522.865848
 20
521.00143
 30
0.0
 40
1.000001168826601
100
AcDbArc
 50
43.900442
 51
132.253572
  0
ARC
  5
242
330
1CC
100
AcDbEntity
  8
0
  6
Continuous
 62
     0
370
    30
100
AcDbCircle
 10
504.710712
 20
540.986167
 30
0.0
 40
0.9999734965523234
100
AcDbArc
 50
312.252161
 51
40.608373
  0
LINE
  5
243
330
1CC
100
AcDbEntity
  8
0
  6
Continuous
 62
     0
370
    30
100
AcDbLine
 10
522.193434
 20
521.741607
 30
0.0
 11
518.122469
 21
518.043332
 31
0.0
  0
LINE
  5
244
330
1CC
100
AcDbEntity
  8
0
  6
Continuous
 62
     0
370
    30
100
AcDbLine
 10
505.383089
 20
540.245994
 30
0.0
 11
501.312124
 21
536.547718
 31
0.0
  0
LINE
  5
245
330
1CC
100
AcDbEntity
  8
0
  6
Continuous
 62
     0
370
    30
100
AcDbLine
 10
529.897515
 20
527.389363
 30
0.0
 11
526.566725
 21
524.363501
 31
0.0
  0
LINE
  5
246
330
1CC
100
AcDbEntity
  8
0
  6
Continuous
 62
     0
370
    30
100
AcDbLine
 10
511.742342
 20
547.3741
 30
0.0
 11
508.411553
 21
544.348238
 31
0.0
  0
ARC
  5
247
330
1CC
100
AcDbEntity
  8
0
  6
Continuous
 62
     0
370
    30
100
AcDbCircle
 10
525.45646
 20
523.35488
 30
0.0
 40
1.500001733016911
100
AcDbArc
 50
312.253701
 51
40.606833
  0
ARC
  5
248
330
1CC
100
AcDbEntity
  8
0
  6
Continuous
 62
     0
370
    30
100
AcDbCircle
 10
507.30129
 20
543.339615
 30
0.0
 40
1.500001733016005
100
AcDbArc
 50
43.900441
 51
132.253573
  0
LINE
  5
249
330
1CC
100
AcDbEntity
  8
0
  6
Continuous
 62
     0
370
    30
100
AcDbLine
 10
567.717297
 20
433.864966
 30
0.0
 11
567.717297
 21
440.865349
 31
0.0
  0
LINE
  5
24A
330
1CC
100
AcDbEntity
  8
0
  6
Continuous
 62
     0
370
    30
100
AcDbLine
 10
567.717297
 20
411.865349
 30
0.0
 11
567.717297
 21
418.865731
 31
0.0
  0
LINE
  5
24B
330
1CC
100
AcDbEntity
  8
0
  6
Continuous
 62
     0
370
    30
100
AcDbLine
 10
572.717297
 20
436.688006
 30
0.0
 11
572.717297
 21
440.865349
 31
0.0
  0
LINE
  5
24C
330
1CC
100
AcDbEntity
  8
0
  6
Continuous
 62
     0
370
    30
100
AcDbLine
 10
572.717297
 20
411.865349
 30
0.0
 11
572.717297
 21
416.042691
 31
0.0
  0
ARC
  5
24D
330
1CC
100
AcDbEntity
  8
0
  6
Continuous
 62
     0
370
    30
100
AcDbCircle
 10
570.217297
 20
440.86305
 30
0.0
 40
2.500001382057628
100
AcDbArc
 50
0.052686
 51
179.931108
  0
ARC
  5
24E
330
1CC
100
AcDbEntity
  8
0
  6
Continuous
 62
     0
370
    30
100
AcDbCircle
 10
570.217297
 20
411.867648
 30
0.0
 40
2.500001382057621
100
AcDbArc
 50
180.068892
 51
359.947314
  0
LINE
  5
24F
330
1CC
100
AcDbEntity
  8
0
  6
Continuous
 62
     0
370
     0
100
AcDbLine
 10
520.808146
 20
540.369061
 30
0.0
 11
527.67959
 21
532.805156
 31
0.0
  0
LINE
  5
250
330
1CC
100
AcDbEntity
  8
0
  6
Continuous
 62
     0
370
     0
100
AcDbLine
 10
516.920969
 20
544.647963
 30
0.0
 11
520.808146
 21
540.369061
 31
0.0
  0
ARC
  5
251
330
1CC
100
AcDbEntity
  8
0
  6
Continuous
 62
     0
370
    30
100
AcDbCircle
 10
527.002276
 20
533.545588
 30
0.0
 40
1.003460684082054
100
AcDbArc
 50
312.450896
 51
42.056162
  0
ARC
  5
252
330
1CC
100
AcDbEntity
  8
0
  6
Continuous
 62
     0
370
    30
100
AcDbCircle
 10
517.593169
 20
543.902885
 30
0.0
 40
1.003460692741057
100
AcDbArc
 50
42.451112
 51
132.056378
  0
LINE
  5
253
330
1CC
100
AcDbEntity
  8
0
  6
Continuous
 62
     0
370
    30
100
AcDbLine
 10
515.440618
 20
543.303135
 30
0.0
 11
516.920969
 21
544.647963
 31
0.0
  0
LINE
  5
254
330
1CC
100
AcDbEntity
  8
0
  6
Continuous
 62
     0
370
    30
100
AcDbLine
 10
526.199239
 20
531.460328
 30
0.0
 11
527.67959
 21
532.805156
 31
0.0
  0
LINE
  5
255
330
1CC
100
AcDbEntity
  8
0
  6
Continuous
 62
     0
370
     0
100
AcDbLine
 10
572.680532
 20
449.648131
 30
0.0
 11
572.951666
 21
450.482595
 31
0.0
  0
LINE
  5
256
330
1CC
100
AcDbEntity
  8
0
  6
Continuous
 62
     0
370
     0
100
AcDbLine
 10
572.951666
 20
450.482595
 30
0.0
 11
575.770702
 21
459.158696
 31
0.0
  0
LINE
  5
257
330
1CC
100
AcDbEntity
  8
0
  6
Continuous
 62
     0
370
     0
100
AcDbLine
 10
566.52255
 20
450.713792
 30
0.0
 11
570.549745
 21
463.108221
 31
0.0
  0
LINE
  5
258
330
1CC
100
AcDbEntity
  8
0
  6
Continuous
 62
     0
370
     0
100
AcDbLine
 10
566.135216
 20
449.521699
 30
0.0
 11
566.52255
 21
450.713792
 31
0.0
  0
LINE
  5
259
330
1CC
100
AcDbEntity
  8
0
  6
Continuous
 62
     0
370
     0
100
AcDbLine
 10
563.150396
 20
458.983581
 30
0.0
 11
564.801787
 21
464.066039
 31
0.0
  0
LINE
  5
25A
330
1CC
100
AcDbEntity
  8
0
  6
Continuous
 62
     0
370
    30
100
AcDbLine
 10
584.008221
 20
448.624002
 30
0.0
 11
585.699643
 21
453.829663
 31
0.0
  0
LINE
  5
25B
330
1CC
100
AcDbEntity
  8
0
  6
Continuous
 62
     0
370
    30
100
AcDbLine
 10
583.845541
 20
448.123324
 30
0.0
 11
584.008221
 21
448.624002
 31
0.0
  0
LINE
  5
25C
330
1CC
100
AcDbEntity
  8
0
  6
Continuous
 62
     0
370
    30
100
AcDbLine
 10
580.204085
 20
448.126142
 30
0.0
 11
583.023121
 21
456.802242
 31
0.0
  0
LINE
  5
25D
330
1CC
100
AcDbEntity
  8
0
  6
Continuous
 62
     0
370
    30
100
AcDbLine
 10
579.932951
 20
447.291677
 30
0.0
 11
580.204085
 21
448.126142
 31
0.0
  0
LINE
  5
25E
330
1CC
100
AcDbEntity
  8
0
  6
Continuous
 62
     0
370
    30
100
AcDbLine
 10
585.545134
 20
453.354134
 30
0.0
 11
601.051371
 21
448.315853
 31
0.0
  0
LINE
  5
25F
330
1CC
100
AcDbEntity
  8
0
  6
Continuous
 62
     0
370
    30
100
AcDbLine
 10
584.00005
 20
448.598852
 30
0.0
 11
590.485238
 21
446.491687
 31
0.0
  0
LINE
  5
260
330
1CC
100
AcDbEntity
  8
0
  6
Continuous
 62
     0
370
    30
100
AcDbLine
 10
579.932951
 20
447.291677
 30
0.0
 11
572.680532
 21
449.648131
 31
0.0
  0
LINE
  5
261
330
1CC
100
AcDbEntity
  8
0
  6
Continuous
 62
     0
370
    30
100
AcDbLine
 10
583.023121
 20
456.802242
 30
0.0
 11
575.770702
 21
459.158696
 31
0.0
  0
LINE
  5
262
330
1CC
100
AcDbEntity
  8
0
  6
Continuous
 62
     0
370
    30
100
AcDbLine
 10
583.845541
 20
448.123324
 30
0.0
 11
579.932951
 21
447.291677
 31
0.0
  0
LINE
  5
263
330
1CC
100
AcDbEntity
  8
0
  6
Continuous
 62
     0
370
    30
100
AcDbLine
 10
585.699643
 20
453.829663
 30
0.0
 11
583.023121
 21
456.802242
 31
0.0
  0
ARC
  5
264
330
1CC
100
AcDbEntity
  8
0
  6
Continuous
 62
     0
370
    30
100
AcDbCircle
 10
571.473595
 20
455.303086
 30
0.0
 40
11.01373535222666
100
AcDbArc
 50
127.284386
 51
154.699079
  0
ARC
  5
265
330
1CC
100
AcDbEntity
  8
0
  6
Continuous
 62
     0
370
    30
100
AcDbCircle
 10
564.753667
 20
453.274558
 30
0.0
 40
3.999078237479086
100
AcDbArc
 50
230.390818
 51
290.210304
  0
ARC
  5
266
330
1CC
100
AcDbEntity
  8
0
  6
Continuous
 62
     0
370
    30
100
AcDbCircle
 10
567.225245
 20
460.883512
 30
0.0
 40
4.00020379492851
100
AcDbArc
 50
33.789892
 51
127.288848
  0
ARC
  5
267
330
1CC
100
AcDbEntity
  8
0
  6
Continuous
 62
     0
370
    30
100
AcDbCircle
 10
569.590423
 20
440.134395
 30
0.0
 40
10.00299654602644
100
AcDbArc
 50
72.005946
 51
110.207265
  0
ARC
  5
268
330
1CC
100
AcDbEntity
  8
0
  6
Continuous
 62
     0
370
    30
100
AcDbCircle
 10
578.862785
 20
468.67179
 30
0.0
 40
10.00299654602649
100
AcDbArc
 50
213.792735
 51
251.994054
  0
LINE
  5
269
330
1CC
100
AcDbEntity
  8
0
  6
Continuous
 62
     0
370
    30
100
AcDbLine
 10
521.175287
 20
541.4521
 30
0.0
 11
529.764593
 21
531.997218
 31
0.0
  0
LINE
  5
26A
330
1CC
100
AcDbEntity
  8
0
  6
Continuous
 62
     0
370
    30
100
AcDbLine
 10
516.316317
 20
546.800727
 30
0.0
 11
521.175287
 21
541.4521
 31
0.0
  0
LINE
  5
26B
330
1CC
100
AcDbEntity
  8
0
  6
Continuous
 62
     0
370
     0
100
AcDbLine
 10
540.973508
 20
559.812585
 30
0.0
 11
550.421744
 21
549.412215
 31
0.0
  0
LINE
  5
26C
330
1CC
100
AcDbEntity
  8
0
  6
Continuous
 62
     0
370
     0
100
AcDbLine
 10
535.62864
 20
565.696075
 30
0.0
 11
540.973508
 21
559.812585
 31
0.0
  0
LINE
  5
26D
330
1CC
100
AcDbEntity
  8
0
  6
Continuous
 62
     0
370
     0
100
AcDbLine
 10
516.384079
 20
548.213317
 30
0.0
 11
521.728946
 21
542.329827
 31
0.0
  0
LINE
  5
26E
330
1CC
100
AcDbEntity
  8
0
  6
Continuous
 62
     0
370
     0
100
AcDbLine
 10
521.728946
 20
542.329827
 30
0.0
 11
531.177182
 21
531.929457
 31
0.0
  0
LINE
  5
26F
330
1CC
100
AcDbEntity
  8
0
  6
Continuous
 62
     0
370
    30
100
AcDbLine
 10
537.041229
 20
565.628314
 30
0.0
 11
541.9002
 21
560.279686
 31
0.0
  0
LINE
  5
270
330
1CC
100
AcDbEntity
  8
0
  6
Continuous
 62
     0
370
    30
100
AcDbLine
 10
541.9002
 20
560.279686
 30
0.0
 11
550.489505
 21
550.824805
 31
0.0
  0
ARC
  5
271
330
1CC
100
AcDbEntity
  8
0
  6
Continuous
 62
     0
370
    30
100
AcDbCircle
 10
530.504974
 20
532.674543
 30
0.0
 40
1.003460684082585
100
AcDbArc
 50
222.451112
 51
312.056378
  0
ARC
  5
272
330
1CC
100
AcDbEntity
  8
0
  6
Continuous
 62
     0
370
    30
100
AcDbCircle
 10
517.0614
 20
547.472876
 30
0.0
 40
1.003460692735481
100
AcDbArc
 50
132.450896
 51
222.056162
  0
ARC
  5
273
330
1CC
100
AcDbEntity
  8
0
  6
Continuous
 62
     0
370
    30
100
AcDbCircle
 10
549.744422
 20
550.152656
 30
0.0
 40
1.003460684082093
100
AcDbArc
 50
312.450896
 51
42.056162
  0
ARC
  5
274
330
1CC
100
AcDbEntity
  8
0
  6
Continuous
 62
     0
370
    30
100
AcDbCircle
 10
536.300848
 20
564.950989
 30
0.0
 40
1.003460692739265
100
AcDbArc
 50
42.451112
 51
132.056378
  0
LINE
  5
275
330
1CC
100
AcDbEntity
  8
0
  6
Continuous
 62
     0
370
    30
100
AcDbLine
 10
516.384079
 20
548.213317
 30
0.0
 11
535.62864
 21
565.696075
 31
0.0
  0
LINE
  5
276
330
1CC
100
AcDbEntity
  8
0
  6
Continuous
 62
     0
370
    30
100
AcDbLine
 10
531.177182
 20
531.929457
 30
0.0
 11
550.421744
 21
549.412215
 31
0.0
  0
ENDBLK
  5
278
330
1CC
100
AcDbEntity
  8
0
100
AcDbBlockEnd
  0
BLOCK
  5
375
330
27A
100
AcDbEntity
  8
0
100
AcDbBlockBegin
  2
d
 70
     0
 10
107.140549
 20
85.826683
 30
0.0
  3
d
  1

  0
ELLIPSE
  5
27B
330
27A
100
AcDbEntity
  8
0
  6
Continuous
 62
     0
370
     0
100
AcDbEllipse
 10
564.067959
 20
200.942928
 30
0.0
 11
-5.500000000000001
 21
-9.526279441628827
 31
0.0
210
0.0
220
0.0
230
-1.0
 40
0.57735
 41
0.7853981633974482
 42
3.14159267643995
  0
ELLIPSE
  5
27C
330
27A
100
AcDbEntity
  8
0
  6
Continuous
 62
     0
370
     0
100
AcDbEllipse
 10
564.067959
 20
200.942928
 30
0.0
 11
-5.500000000000001
 21
-9.526279441628827
 31
0.0
210
0.0
220
0.0
230
-1.0
 40
0.57735
 41
0.0000000228501562
 42
0.7853981633974477
  0
LINE
  5
27D
330
27A
100
AcDbEntity
  8
0
  6
Continuous
 62
     0
370
    30
100
AcDbLine
 10
577.527135
 20
205.873975
 30
0.0
 11
569.567959
 21
210.469207
 31
0.0
  0
LINE
  5
27E
330
27A
100
AcDbEntity
  8
0
  6
Continuous
 62
     0
370
    30
100
AcDbLine
 10
566.527673
 20
186.821106
 30
0.0
 11
558.567959
 21
191.416649
 31
0.0
  0
LWPOLYLINE
  5
27F
330
27A
100
AcDbEntity
  8
0
  6
Continuous
 62
     0
370
    30
100
AcDbPolyline
 90
       57
 70
     0
 43
0.0
 10
569.567932
 20
210.469208
 10
568.286194
 20
211.238235
 10
566.990845
 20
212.073547
 10
565.685913
 20
212.973602
 10
564.375427
 20
213.936813
 10
563.063293
 20
214.961594
 10
561.75293
 20
216.046127
 10
560.447021
 20
217.188278
 10
559.148376
 20
218.385941
 10
557.859619
 20
219.636963
 10
556.583496
 20
220.93924
 10
555.322693
 20
222.290634
 10
554.080017
 20
223.689026
 10
552.85791
 20
225.132111
 10
551.658569
 20
226.617249
 10
550.48407
 20
228.141815
 10
549.33667
 20
229.70314
 10
548.218323
 20
231.298569
 10
547.131287
 20
232.925446
 10
546.077515
 20
234.581055
 10
545.058777
 20
236.262527
 10
544.076599
 20
237.966904
 10
543.132568
 20
239.691238
 10
542.228271
 20
241.432602
 10
541.365295
 20
243.188034
 10
540.545288
 20
244.95459
 10
539.769531
 20
246.729202
 10
539.039307
 20
248.508728
 10
538.355835
 20
250.290054
 10
537.72052
 20
252.070023
 10
537.13446
 20
253.845505
 10
536.598572
 20
255.613174
 10
536.113159
 20
257.369446
 10
535.678406
 20
259.110748
 10
535.294678
 20
260.833496
 10
534.962219
 20
262.534119
 10
534.681213
 20
264.208984
 10
534.452026
 20
265.854553
 10
534.274902
 20
267.467224
 10
534.150146
 20
269.043396
 10
534.077881
 20
270.579529
 10
534.057068
 20
272.07196
 10
534.085876
 20
273.517151
 10
534.162415
 20
274.911438
 10
534.28479
 20
276.251251
 10
534.45105
 20
277.53299
 10
534.659363
 20
278.753021
 10
534.907715
 20
279.907837
 10
535.193054
 20
280.994873
 10
535.511292
 20
282.012329
 10
535.858459
 20
282.958374
 10
536.230591
 20
283.832001
 10
536.623779
 20
284.63382
 10
537.033997
 20
285.364532
 10
537.45752
 20
286.025391
 10
537.891418
 20
286.619995
 10
538.341553
 20
287.162445
  0
LWPOLYLINE
  5
280
330
27A
100
AcDbEntity
  8
0
  6
Continuous
 62
     0
370
    30
100
AcDbPolyline
 90
       73
 70
     0
 43
0.0
 10
558.567932
 20
191.416641
 10
557.002563
 20
192.349258
 10
555.446167
 20
193.333969
 10
553.899963
 20
194.369659
 10
552.365112
 20
195.455154
 10
550.842712
 20
196.589355
 10
549.333984
 20
197.771088
 10
547.839966
 20
198.999161
 10
546.361755
 20
200.272293
 10
544.900513
 20
201.589203
 10
543.457275
 20
202.948624
 10
542.033142
 20
204.349258
 10
540.629272
 20
205.789871
 10
539.246643
 20
207.26915
 10
537.886475
 20
208.785828
 10
536.549805
 20
210.338623
 10
535.237671
 20
211.926285
 10
533.951294
 20
213.547363
 10
532.691589
 20
215.200226
 10
531.459717
 20
216.883224
 10
530.256714
 20
218.594696
 10
529.083679
 20
220.332977
 10
527.941589
 20
222.096405
 10
526.831543
 20
223.883301
 10
525.754639
 20
225.692047
 10
524.711914
 20
227.520935
 10
523.704407
 20
229.368332
 10
522.733215
 20
231.232574
 10
521.799377
 20
233.111984
 10
520.903687
 20
235.004837
 10
520.046936
 20
236.909332
 10
519.229797
 20
238.82373
 10
518.453064
 20
240.746246
 10
517.717468
 20
242.67511
 10
517.023743
 20
244.608536
 10
516.37262
 20
246.544769
 10
515.764832
 20
248.48204
 10
515.201111
 20
250.418564
 10
514.68219
 20
252.352615
 10
514.208557
 20
254.282715
 10
513.780701
 20
256.207428
 10
513.399109
 20
258.125427
 10
513.064209
 20
260.035248
 10
512.776428
 20
261.935547
 10
512.536255
 20
263.824921
 10
512.344116
 20
265.701965
 10
512.2005
 20
267.565277
 10
512.105896
 20
269.413483
 10
512.06073
 20
271.245209
 10
512.065369
 20
273.059021
 10
512.120422
 20
274.853546
 10
512.226257
 20
276.62738
 10
512.383362
 20
278.379181
 10
512.592346
 20
280.107574
 10
512.853821
 20
281.811249
 10
513.168335
 20
283.488861
 10
513.536499
 20
285.139069
 10
513.958801
 20
286.76059
 10
514.435913
 20
288.35202
 10
514.968384
 20
289.912079
 10
515.556824
 20
291.439423
 10
516.201721
 20
292.932556
 10
516.903137
 20
294.389221
 10
517.661072
 20
295.806793
 10
518.475342
 20
297.182709
 10
519.346008
 20
298.514374
 10
520.272888
 20
299.799164
 10
521.25592
 20
301.034546
 10
522.295105
 20
302.217865
 10
523.390076
 20
303.346558
 10
524.538635
 20
304.417938
 10
525.737854
 20
305.429352
 10
526.99707
 20
306.387115
  0
ELLIPSE
  5
281
330
27A
100
AcDbEntity
  8
0
  6
Continuous
 62
     0
370
     0
100
AcDbEllipse
 10
505.828717
 20
152.917712
 30
0.0
 11
4.73214285712389
 21
8.196311857212727
 31
0.0
210
0.0
220
0.0
230
1.0
 40
0.57735
 41
0.0640853288909682
 42
0.4942645528313943
  0
ELLIPSE
  5
282
330
27A
100
AcDbEntity
  8
0
  6
Continuous
 62
     0
370
     0
100
AcDbEllipse
 10
505.828717
 20
152.917712
 30
0.0
 11
4.73214285712389
 21
8.196311857212727
 31
0.0
210
0.0
220
0.0
230
1.0
 40
0.57735
 41
0.4942645528314005
 42
3.077544237168052
  0
LINE
  5
283
330
27A
100
AcDbEntity
  8
0
  6
Continuous
 62
     0
370
    30
100
AcDbLine
 10
503.321089
 20
166.199168
 30
0.0
 11
505.183613
 21
166.481558
 31
0.0
  0
ELLIPSE
  5
284
330
27A
100
AcDbEntity
  8
0
  6
Continuous
 62
     0
370
     0
100
AcDbEllipse
 10
502.196116
 20
155.014995
 30
0.0
 11
6.499999999974054
 21
11.25833024915276
 31
0.0
210
0.0
220
0.0
230
1.0
 40
0.57735
 41
0.6627096436001265
 42
1.896615788857908
  0
ARC
  5
285
330
27A
100
AcDbEntity
  8
0
  6
Continuous
 62
     0
370
    30
100
AcDbCircle
 10
486.887739
 20
154.502429
 30
0.0
 40
7.085024519700768
100
AcDbArc
 50
330.806828
 51
3.757269
  0
ELLIPSE
  5
286
330
27A
100
AcDbEntity
  8
0
  6
Continuous
 62
     0
370
     0
100
AcDbEllipse
 10
502.196116
 20
155.014995
 30
0.0
 11
6.499999999974054
 21
11.25833024915276
 31
0.0
210
0.0
220
0.0
230
1.0
 40
0.57735
 41
2.233505970395036
 42
3.467412115652818
  0
ELLIPSE
  5
287
330
27A
100
AcDbEntity
  8
0
  6
Continuous
 62
     0
370
     0
100
AcDbEllipse
 10
502.196116
 20
155.014995
 30
0.0
 11
6.499999999974054
 21
11.25833024915276
 31
0.0
210
0.0
220
0.0
230
1.0
 40
0.57735
 41
-0.0000000389239156
 42
0.3258194620629959
  0
LINE
  5
288
330
27A
100
AcDbEntity
  8
0
  6
Continuous
 62
     0
370
    30
100
AcDbLine
 10
505.183613
 20
166.481558
 30
0.0
 11
506.273589
 21
166.882219
 31
0.0
  0
ELLIPSE
  5
289
330
27A
100
AcDbEntity
  8
0
  6
Continuous
 62
     0
370
     0
100
AcDbEllipse
 10
503.453897
 20
176.524157
 30
0.0
 11
-4.877328081719995
 21
1.100759184865098
 31
0.0
210
0.0
220
0.0
230
1.0
 40
0.387333
 41
2.46487902460677
 42
3.141592640009004
  0
ELLIPSE
  5
28A
330
27A
100
AcDbEntity
  8
0
  6
Continuous
 62
     0
370
     0
100
AcDbEllipse
 10
503.453897
 20
176.524157
 30
0.0
 11
-4.877328081719995
 21
1.100759184865098
 31
0.0
210
0.0
220
0.0
230
1.0
 40
0.387333
 41
-0.0000000135807516
 42
2.46487902460677
  0
LWPOLYLINE
  5
28B
330
27A
100
AcDbEntity
  8
0
  6
Continuous
 62
     0
370
    30
100
AcDbPolyline
 90
       17
 70
     0
 43
0.0
 10
496.699463
 20
169.307739
 10
496.657623
 20
168.95256
 10
496.692078
 20
168.583649
 10
496.803894
 20
168.211151
 10
496.9935
 20
167.84549
 10
497.260132
 20
167.497055
 10
497.601257
 20
167.175751
 10
498.012299
 20
166.890228
 10
498.486115
 20
166.647171
 10
499.013367
 20
166.45018
 10
499.583588
 20
166.300339
 10
500.185913
 20
166.195587
 10
500.809692
 20
166.132584
 10
501.444763
 20
166.106537
 10
502.08139
 20
166.112366
 10
502.710144
 20
166.144913
 10
503.321075
 20
166.199173
  0
LINE
  5
28C
330
27A
100
AcDbEntity
  8
0
  6
Continuous
 62
     0
370
    30
100
AcDbLine
 10
506.273589
 20
166.882219
 30
0.0
 11
506.452337
 21
167.09827
 31
0.0
  0
ELLIPSE
  5
28D
330
27A
100
AcDbEntity
  8
0
  6
Continuous
 62
     0
370
     0
100
AcDbEllipse
 10
504.709428
 20
182.08726
 30
0.0
 11
-6.96761154531422
 21
1.572513121235841
 31
0.0
210
0.0
220
0.0
230
1.0
 40
0.387333
 41
2.46487902460678
 42
2.804479471016748
  0
ELLIPSE
  5
28E
330
27A
100
AcDbEntity
  8
0
  6
Continuous
 62
     0
370
     0
100
AcDbEllipse
 10
504.709428
 20
182.08726
 30
0.0
 11
-6.96761154531422
 21
1.572513121235841
 31
0.0
210
0.0
220
0.0
230
1.0
 40
0.387333
 41
0.3371132614650545
 42
2.46487902460678
  0
ELLIPSE
  5
28F
330
27A
100
AcDbEntity
  8
0
  6
Continuous
 62
     0
370
     0
100
AcDbEllipse
 10
505.877901
 20
187.264618
 30
0.0
 11
-6.131498159876058
 21
1.383811546687437
 31
0.0
210
0.0
220
0.0
230
1.0
 40
0.387333
 41
5.575541157433615
 42
5.606471678196565
  0
ELLIPSE
  5
290
330
27A
100
AcDbEntity
  8
0
  6
Continuous
 62
     0
370
     0
100
AcDbEllipse
 10
505.877901
 20
187.264618
 30
0.0
 11
-6.131498159876058
 21
1.383811546687437
 31
0.0
210
0.0
220
0.0
230
1.0
 40
0.387333
 41
2.464879024606782
 42
3.789306281853595
  0
ELLIPSE
  5
291
330
27A
100
AcDbEntity
  8
0
  6
Continuous
 62
     0
370
     0
100
AcDbEllipse
 10
505.877901
 20
187.264618
 30
0.0
 11
-6.131498159876058
 21
1.383811546687437
 31
0.0
210
0.0
220
0.0
230
1.0
 40
0.387333
 41
5.606471678196584
 42
8.748064331786368
  0
ELLIPSE
  5
292
330
27A
100
AcDbEntity
  8
0
  6
Continuous
 62
     0
370
     0
100
AcDbEllipse
 10
513.830742
 20
160.279889
 30
0.0
 11
-1.126968805013531
 21
4.871338759758521
 31
0.0
210
0.0
220
0.0
230
-1.0
 40
0.718777
 41
-0.0000000381838445
 42
0.8784108369150762
  0
ELLIPSE
  5
293
330
27A
100
AcDbEntity
  8
0
  6
Continuous
 62
     0
370
     0
100
AcDbEllipse
 10
518.020765
 20
161.249237
 30
0.0
 11
-1.609955435733602
 21
6.959055371083545
 31
0.0
210
0.0
220
0.0
230
-1.0
 40
0.718777
 41
5.539518775640404
 42
7.612676885574241
  0
ELLIPSE
  5
294
330
27A
100
AcDbEntity
  8
0
  6
Continuous
 62
     0
370
     0
100
AcDbEllipse
 10
494.57437
 20
137.18007
 30
0.0
 11
4.877328081719995
 21
-1.100759184865097
 31
0.0
210
0.0
220
0.0
230
-1.0
 40
0.387333
 41
0.6767136289830308
 42
3.141592667170555
  0
ELLIPSE
  5
295
330
27A
100
AcDbEntity
  8
0
  6
Continuous
 62
     0
370
     0
100
AcDbEllipse
 10
494.57437
 20
137.18007
 30
0.0
 11
4.877328081719995
 21
-1.100759184865097
 31
0.0
210
0.0
220
0.0
230
-1.0
 40
0.387333
 41
0.0000000135807465
 42
0.6767136289830308
  0
ELLIPSE
  5
296
330
27A
100
AcDbEntity
  8
0
  6
Continuous
 62
     0
370
     0
100
AcDbEllipse
 10
493.318839
 20
131.616966
 30
0.0
 11
6.96761154531422
 21
-1.57251312123584
 31
0.0
210
0.0
220
0.0
230
-1.0
 40
0.387333
 41
0.6767136289830173
 42
3.478707222213325
  0
ELLIPSE
  5
297
330
27A
100
AcDbEntity
  8
0
  6
Continuous
 62
     0
370
     0
100
AcDbEllipse
 10
493.318839
 20
131.616966
 30
0.0
 11
6.96761154531422
 21
-1.57251312123584
 31
0.0
210
0.0
220
0.0
230
-1.0
 40
0.387333
 41
5.946070762183406
 42
6.959898936162603
  0
ELLIPSE
  5
298
330
27A
100
AcDbEntity
  8
0
  6
Continuous
 62
     0
370
     0
100
AcDbEllipse
 10
492.150367
 20
126.439609
 30
0.0
 11
6.131498159876058
 21
-1.383811546687436
 31
0.0
210
0.0
220
0.0
230
-1.0
 40
0.387333
 41
0.6767136289830237
 42
2.493891492903537
  0
ELLIPSE
  5
299
330
27A
100
AcDbEntity
  8
0
  6
Continuous
 62
     0
370
     0
100
AcDbEllipse
 10
492.150367
 20
126.439609
 30
0.0
 11
6.131498159876058
 21
-1.383811546687436
 31
0.0
210
0.0
220
0.0
230
-1.0
 40
0.387333
 41
0.6477014791497097
 42
0.6767136289830237
  0
ELLIPSE
  5
29A
330
27A
100
AcDbEntity
  8
0
  6
Continuous
 62
     0
370
     0
100
AcDbEllipse
 10
484.197526
 20
153.424338
 30
0.0
 11
1.126968805013531
 21
-4.871338759758521
 31
0.0
210
0.0
220
0.0
230
1.0
 40
0.718777
 41
0.9798819284046685
 42
3.304679957910021
  0
ELLIPSE
  5
29B
330
27A
100
AcDbEntity
  8
0
  6
Continuous
 62
     0
370
     0
100
AcDbEllipse
 10
484.197526
 20
153.424338
 30
0.0
 11
1.126968805013531
 21
-4.871338759758521
 31
0.0
210
0.0
220
0.0
230
1.0
 40
0.718777
 41
0.0000000381837841
 42
0.9798819284046685
  0
LWPOLYLINE
  5
29C
330
27A
100
AcDbEntity
  8
0
  6
Continuous
 62
     0
370
    30
100
AcDbPolyline
 90
        6
 70
     0
 43
0.0
 10
491.796783
 20
150.050339
 10
492.076721
 20
150.141037
 10
492.339447
 20
150.279236
 10
492.584808
 20
150.464157
 10
492.812683
 20
150.694962
 10
493.072815
 20
151.046661
  0
LWPOLYLINE
  5
29D
330
27A
100
AcDbEntity
  8
0
  6
Continuous
 62
     0
370
    30
100
AcDbPolyline
 90
       16
 70
     0
 43
0.0
 10
493.95755
 20
154.966705
 10
493.927063
 20
155.53833
 10
493.859436
 20
156.101486
 10
493.753265
 20
156.648682
 10
493.606964
 20
157.173599
 10
493.419159
 20
157.669907
 10
493.18869
 20
158.131149
 10
492.9151
 20
158.550827
 10
492.59906
 20
158.922409
 10
492.242432
 20
159.239716
 10
491.849213
 20
159.497345
 10
491.424927
 20
159.691101
 10
490.976746
 20
159.818436
 10
490.512634
 20
159.878387
 10
490.041077
 20
159.871567
 10
489.543152
 20
159.793091
  0
ELLIPSE
  5
29E
330
27A
100
AcDbEntity
  8
0
  6
Continuous
 62
     0
370
     0
100
AcDbEllipse
 10
480.007503
 20
152.454989
 30
0.0
 11
1.609955435733602
 21
-6.959055371083545
 31
0.0
210
0.0
220
0.0
230
1.0
 40
0.718777
 41
0.9798819284046711
 42
2.190678409628852
  0
ELLIPSE
  5
29F
330
27A
100
AcDbEntity
  8
0
  6
Continuous
 62
     0
370
     0
100
AcDbEllipse
 10
480.007503
 20
152.454989
 30
0.0
 11
1.609955435733602
 21
-6.959055371083545
 31
0.0
210
0.0
220
0.0
230
1.0
 40
0.718777
 41
0.9509149318384136
 42
0.9798819284046711
  0
ELLIPSE
  5
2A0
330
27A
100
AcDbEntity
  8
0
  6
Continuous
 62
     0
370
     0
100
AcDbEllipse
 10
476.108016
 20
151.552855
 30
0.0
 11
1.416760783445465
 21
-6.123968726553064
 31
0.0
210
0.0
220
0.0
230
1.0
 40
0.718777
 41
0.9798819284046685
 42
4.12147458199446
  0
ELLIPSE
  5
2A1
330
27A
100
AcDbEntity
  8
0
  6
Continuous
 62
     0
370
     0
100
AcDbEllipse
 10
476.108016
 20
151.552855
 30
0.0
 11
1.416760783445465
 21
-6.123968726553064
 31
0.0
210
0.0
220
0.0
230
1.0
 40
0.718777
 41
4.121474581994461
 42
7.263067235584255
  0
ELLIPSE
  5
2A2
330
27A
100
AcDbEntity
  8
0
  6
Continuous
 62
     0
370
     0
100
AcDbEllipse
 10
490.528854
 20
161.751092
 30
0.0
 11
-6.500001631229797
 21
-11.25833307457058
 31
0.0
210
0.0
220
0.0
230
-1.0
 40
0.57735
 41
1.003557896627606
 42
1.058531359151046
  0
ELLIPSE
  5
2A3
330
27A
100
AcDbEntity
  8
0
  6
Continuous
 62
     0
370
     0
100
AcDbEllipse
 10
490.528854
 20
161.751092
 30
0.0
 11
-6.500001631229797
 21
-11.25833307457058
 31
0.0
210
0.0
220
0.0
230
-1.0
 40
0.57735
 41
1.058531359151046
 42
3.141592676439949
  0
LINE
  5
2A4
330
27A
100
AcDbEntity
  8
0
  6
Continuous
 62
     0
370
    30
100
AcDbLine
 10
506.546282
 20
167.514533
 30
0.0
 11
508.696116
 21
166.273325
 31
0.0
  0
LINE
  5
2A5
330
27A
100
AcDbEntity
  8
0
  6
Continuous
 62
     0
370
    30
100
AcDbLine
 10
497.028854
 20
173.009422
 30
0.0
 11
497.476566
 21
172.750936
 31
0.0
  0
LINE
  5
2A6
330
27A
100
AcDbEntity
  8
0
  6
Continuous
 62
     0
370
    30
100
AcDbLine
 10
486.79813
 20
148.89392
 30
0.0
 11
495.696116
 21
143.756665
 31
0.0
  0
LWPOLYLINE
  5
2A7
330
27A
100
AcDbEntity
  8
0
  6
Continuous
 62
     0
370
    30
100
AcDbPolyline
 90
       32
 70
     0
 43
0.0
 10
479.924408
 20
159.680954
 10
480.022125
 20
160.486877
 10
480.166595
 20
161.295563
 10
480.35614
 20
162.104858
 10
480.589111
 20
162.912247
 10
480.86377
 20
163.714554
 10
481.178406
 20
164.50856
 10
481.531372
 20
165.291061
 10
481.920929
 20
166.058807
 10
482.345398
 20
166.808594
 10
482.80304
 20
167.537186
 10
483.292206
 20
168.241486
 10
483.811249
 20
168.918747
 10
484.358551
 20
169.566299
 10
484.932465
 20
170.181519
 10
485.531433
 20
170.761749
 10
486.153778
 20
171.304337
 10
486.797882
 20
171.80661
 10
487.462158
 20
172.265961
 10
488.144989
 20
172.679688
 10
488.845123
 20
173.044952
 10
489.561554
 20
173.35878
 10
490.293274
 20
173.618164
 10
491.039276
 20
173.82016
 10
491.797913
 20
173.96167
 10
492.564758
 20
174.039276
 10
493.334778
 20
174.049484
 10
494.102875
 20
173.988739
 10
494.863678
 20
173.854004
 10
495.609192
 20
173.645645
 10
496.330414
 20
173.365509
 10
497.02887
 20
173.00943
  0
LWPOLYLINE
  5
2A8
330
27A
100
AcDbEntity
  8
0
  6
Continuous
 62
     0
370
    30
100
AcDbPolyline
 90
       28
 70
     0
 43
0.0
 10
485.01416
 20
149.354111
 10
484.812866
 20
148.681122
 10
484.552826
 20
148.029358
 10
484.235168
 20
147.405869
 10
483.861053
 20
146.817703
 10
483.431641
 20
146.271927
 10
482.948853
 20
145.775314
 10
482.417328
 20
145.333786
 10
481.842346
 20
144.953033
 10
481.229034
 20
144.638794
 10
480.583496
 20
144.396011
 10
479.914398
 20
144.227325
 10
479.230896
 20
144.134888
 10
478.542145
 20
144.120804
 10
477.856354
 20
144.184723
 10
477.180389
 20
144.323227
 10
476.521118
 20
144.532715
 10
475.885376
 20
144.809586
 10
475.279877
 20
145.150177
 10
474.709137
 20
145.550034
 10
474.176025
 20
146.004089
 10
473.683258
 20
146.507263
 10
473.233032
 20
147.054642
 10
472.827393
 20
147.641388
 10
472.468384
 20
148.26265
 10
472.157959
 20
148.913574
 10
471.898163
 20
149.58931
 10
471.689819
 20
150.287247
  0
ARC
  5
2A9
330
27A
100
AcDbEntity
  8
0
  6
Continuous
 62
     0
370
    30
100
AcDbCircle
 10
477.976757
 20
153.570173
 30
0.0
 40
6.455164274031385
100
AcDbArc
 50
36.829969
 51
170.99221
  0
LINE
  5
2AA
330
27A
100
AcDbEntity
  8
0
  6
Continuous
 62
     0
370
    30
100
AcDbLine
 10
485.324495
 20
148.552999
 30
0.0
 11
484.658162
 21
148.273284
 31
0.0
  0
LINE
  5
2AB
330
27A
100
AcDbEntity
  8
0
  6
Continuous
 62
     0
370
    30
100
AcDbLine
 10
483.070557
 20
158.295677
 30
0.0
 11
482.34648
 21
158.254669
 31
0.0
  0
LINE
  5
2AC
330
27A
100
AcDbEntity
  8
0
  6
Continuous
 62
     0
370
    30
100
AcDbLine
 10
491.796787
 20
150.050344
 30
0.0
 11
485.324495
 21
148.552999
 31
0.0
  0
LINE
  5
2AD
330
27A
100
AcDbEntity
  8
0
  6
Continuous
 62
     0
370
    30
100
AcDbLine
 10
489.543162
 20
159.793093
 30
0.0
 11
483.070557
 21
158.295677
 31
0.0
  0
ARC
  5
2AE
330
27A
100
AcDbEntity
  8
0
  6
Continuous
 62
     0
370
    30
100
AcDbCircle
 10
493.98206
 20
134.555616
 30
0.0
 40
10.99788986382211
100
AcDbArc
 50
230.166609
 51
284.397333
  0
ARC
  5
2AF
330
27A
100
AcDbEntity
  8
0
  6
Continuous
 62
     0
370
    30
100
AcDbCircle
 10
495.886732
 20
128.659664
 30
0.0
 40
4.828401545345779
100
AcDbArc
 50
279.897034
 51
29.341262
  0
ARC
  5
2B0
330
27A
100
AcDbEntity
  8
0
  6
Continuous
 62
     0
370
    30
100
AcDbCircle
 10
489.729697
 20
130.049239
 30
0.0
 40
4.828401233101538
100
AcDbArc
 50
125.222829
 51
234.667067
  0
ARC
  5
2B1
330
27A
100
AcDbEntity
  8
0
  6
Continuous
 62
     0
370
    30
100
AcDbCircle
 10
506.472536
 20
134.406156
 30
0.0
 40
7.217451341460597
100
AcDbArc
 50
166.59571
 51
207.929324
  0
ARC
  5
2B2
330
27A
100
AcDbEntity
  8
0
  6
Continuous
 62
     0
370
    30
100
AcDbCircle
 10
482.638139
 20
139.785316
 30
0.0
 40
7.217450552088724
100
AcDbArc
 50
306.634772
 51
347.96839
  0
LINE
  5
2B3
330
27A
100
AcDbEntity
  8
0
  6
Continuous
 62
     0
370
    30
100
AcDbLine
 10
500.723113
 20
141.712791
 30
0.0
 11
499.451699
 21
136.07931
 31
0.0
  0
LINE
  5
2B4
330
27A
100
AcDbEntity
  8
0
  6
Continuous
 62
     0
370
    30
100
AcDbLine
 10
491.481986
 20
146.189694
 30
0.0
 11
489.697042
 21
138.280829
 31
0.0
  0
LWPOLYLINE
  5
2B5
330
27A
100
AcDbEntity
  8
0
  6
Continuous
 62
     0
370
    30
100
AcDbPolyline
 90
       27
 70
     0
 43
0.0
 10
513.436829
 20
165.59108
 10
513.74762
 20
166.220337
 10
514.116211
 20
166.814316
 10
514.54071
 20
167.366501
 10
515.017761
 20
167.87059
 10
515.543701
 20
168.320206
 10
516.11499
 20
168.709061
 10
516.726624
 20
169.031616
 10
517.370728
 20
169.283981
 10
518.039185
 20
169.462509
 10
518.723755
 20
169.563614
 10
519.415405
 20
169.585999
 10
520.104675
 20
169.530487
 10
520.782776
 20
169.398666
 10
521.443787
 20
169.194443
 10
522.082275
 20
168.922119
 10
522.692932
 20
168.586044
 10
523.270447
 20
168.190567
 10
523.809631
 20
167.740067
 10
524.307556
 20
167.239365
 10
524.76239
 20
166.693512
 10
525.172363
 20
166.107559
 10
525.535583
 20
165.486542
 10
525.85022
 20
164.835526
 10
526.114441
 20
164.159546
 10
526.326477
 20
163.463638
 10
526.484863
 20
162.751205
  0
LINE
  5
2B6
330
27A
100
AcDbEntity
  8
0
  6
Continuous
 62
     0
370
    30
100
AcDbLine
 10
512.703773
 20
165.151227
 30
0.0
 11
513.522096
 21
165.553828
 31
0.0
  0
LINE
  5
2B7
330
27A
100
AcDbEntity
  8
0
  6
Continuous
 62
     0
370
    30
100
AcDbLine
 10
510.659631
 20
164.678322
 30
0.0
 11
512.703773
 21
165.151227
 31
0.0
  0
LINE
  5
2B8
330
27A
100
AcDbEntity
  8
0
  6
Continuous
 62
     0
370
    30
100
AcDbLine
 10
501.566354
 20
189.863244
 30
0.0
 11
501.311632
 21
189.801107
 31
0.0
  0
ARC
  5
2B9
330
27A
100
AcDbEntity
  8
0
  6
Continuous
 62
     0
370
    30
100
AcDbCircle
 10
504.045684
 20
179.146291
 30
0.0
 40
11.00000684966466
100
AcDbArc
 50
50.172409
 51
103.026018
  0
ARC
  5
2BA
330
27A
100
AcDbEntity
  8
0
  6
Continuous
 62
     0
370
    30
100
AcDbCircle
 10
502.141536
 20
185.044563
 30
0.0
 40
4.828401545346505
100
AcDbArc
 50
99.897034
 51
209.341262
  0
ARC
  5
2BB
330
27A
100
AcDbEntity
  8
0
  6
Continuous
 62
     0
370
    30
100
AcDbCircle
 10
508.298571
 20
183.654988
 30
0.0
 40
4.828401233101919
100
AcDbArc
 50
305.222829
 51
54.667067
  0
ARC
  5
2BC
330
27A
100
AcDbEntity
  8
0
  6
Continuous
 62
     0
370
    30
100
AcDbCircle
 10
491.555732
 20
179.298071
 30
0.0
 40
7.217451341458585
100
AcDbArc
 50
346.59571
 51
27.929324
  0
ARC
  5
2BD
330
27A
100
AcDbEntity
  8
0
  6
Continuous
 62
     0
370
    30
100
AcDbCircle
 10
515.390128
 20
173.918911
 30
0.0
 40
7.217450552088874
100
AcDbArc
 50
126.634772
 51
167.96839
  0
LINE
  5
2BE
330
27A
100
AcDbEntity
  8
0
  6
Continuous
 62
     0
370
    30
100
AcDbLine
 10
496.69769
 20
169.299837
 30
0.0
 11
498.576569
 21
177.624916
 31
0.0
  0
LINE
  5
2BF
330
27A
100
AcDbEntity
  8
0
  6
Continuous
 62
     0
370
    30
100
AcDbLine
 10
506.452336
 20
167.098271
 30
0.0
 11
508.331225
 21
175.423398
 31
0.0
  0
LWPOLYLINE
  5
2C0
330
27A
100
AcDbEntity
  8
0
  6
Continuous
 62
     0
370
    30
100
AcDbPolyline
 90
        8
 70
     0
 43
0.0
 10
512.097168
 20
162.474365
 10
511.769043
 20
163.125534
 10
511.387726
 20
163.747574
 10
510.952606
 20
164.335922
 10
510.466095
 20
164.885422
 10
509.9328
 20
165.390488
 10
509.357422
 20
165.845566
 10
508.696106
 20
166.273331
  0
LWPOLYLINE
  5
2C1
330
27A
100
AcDbEntity
  8
0
  6
Continuous
 62
     0
370
    30
100
AcDbPolyline
 90
        8
 70
     0
 43
0.0
 10
495.696106
 20
143.756668
 10
496.346191
 20
143.420609
 10
497.025726
 20
143.144531
 10
497.727478
 20
142.930267
 10
498.444214
 20
142.779617
 10
499.169403
 20
142.693436
 10
499.898315
 20
142.669693
 10
500.686676
 20
142.711395
  0
ELLIPSE
  5
2C2
330
27A
100
AcDbEntity
  8
0
  6
Continuous
 62
     0
370
     0
100
AcDbEllipse
 10
647.250073
 20
234.56737
 30
0.0
 11
4.732142857123891
 21
8.196311857212725
 31
0.0
210
0.0
220
0.0
230
1.0
 40
0.57735
 41
0.0640853288909531
 42
2.72479109432276
  0
ELLIPSE
  5
2C3
330
27A
100
AcDbEntity
  8
0
  6
Continuous
 62
     0
370
     0
100
AcDbEllipse
 10
647.250073
 20
234.56737
 30
0.0
 11
4.732142857123891
 21
8.196311857212725
 31
0.0
210
0.0
220
0.0
230
1.0
 40
0.57735
 41
2.724791094322765
 42
3.077544237168024
  0
LINE
  5
2C4
330
27A
100
AcDbEntity
  8
0
  6
Continuous
 62
     0
370
    30
100
AcDbLine
 10
635.719134
 20
226.674229
 30
0.0
 11
635.411075
 21
227.700682
 31
0.0
  0
ELLIPSE
  5
2C5
330
27A
100
AcDbEntity
  8
0
  6
Continuous
 62
     0
370
     0
100
AcDbEllipse
 10
643.617472
 20
236.664653
 30
0.0
 11
6.499999999974054
 21
11.25833024915276
 31
0.0
210
0.0
220
0.0
230
1.0
 40
0.57735
 41
2.893236185091495
 42
3.141596305891726
  0
ELLIPSE
  5
2C6
330
27A
100
AcDbEntity
  8
0
  6
Continuous
 62
     0
370
     0
100
AcDbEllipse
 10
643.617472
 20
236.664653
 30
0.0
 11
6.499999999974054
 21
11.25833024915276
 31
0.0
210
0.0
220
0.0
230
1.0
 40
0.57735
 41
6.034828838681249
 42
7.268734983939052
  0
ARC
  5
2C7
330
27A
100
AcDbEntity
  8
0
  6
Continuous
 62
     0
370
    30
100
AcDbCircle
 10
635.387115
 20
249.392724
 30
0.0
 40
7.240457320719198
100
AcDbArc
 50
299.156838
 51
332.165677
  0
ELLIPSE
  5
2C8
330
27A
100
AcDbEntity
  8
0
  6
Continuous
 62
     0
370
     0
100
AcDbEllipse
 10
643.617472
 20
236.664653
 30
0.0
 11
6.499999999974054
 21
11.25833024915276
 31
0.0
210
0.0
220
0.0
230
1.0
 40
0.57735
 41
1.322439858296584
 42
2.556346003554356
  0
LINE
  5
2C9
330
27A
100
AcDbEntity
  8
0
  6
Continuous
 62
     0
370
    30
100
AcDbLine
 10
635.411075
 20
227.700682
 30
0.0
 11
634.608596
 21
229.353034
 31
0.0
  0
ELLIPSE
  5
2CA
330
27A
100
AcDbEntity
  8
0
  6
Continuous
 62
     0
370
     0
100
AcDbEllipse
 10
626.006887
 20
223.73622
 30
0.0
 11
3.576101566424365
 21
-3.494495326426481
 31
0.0
210
0.0
220
0.0
230
1.0
 40
0.330549
 41
0.6582540762526614
 42
3.141602158421208
  0
ELLIPSE
  5
2CB
330
27A
100
AcDbEntity
  8
0
  6
Continuous
 62
     0
370
     0
100
AcDbEllipse
 10
626.006887
 20
223.73622
 30
0.0
 11
3.576101566424365
 21
-3.494495326426481
 31
0.0
210
0.0
220
0.0
230
1.0
 40
0.330549
 41
0.0000000243152263
 42
0.6582540762526614
  0
LWPOLYLINE
  5
2CC
330
27A
100
AcDbEntity
  8
0
  6
Continuous
 62
     0
370
    30
100
AcDbPolyline
 90
       17
 70
     0
 43
0.0
 10
634.608582
 20
229.353027
 10
634.317322
 20
229.891479
 10
633.999695
 20
230.437927
 10
633.657104
 20
230.980453
 10
633.290283
 20
231.50795
 10
632.900085
 20
232.009003
 10
632.488037
 20
232.472015
 10
632.056946
 20
232.885696
 10
631.611206
 20
233.239334
 10
631.157349
 20
233.524216
 10
630.703674
 20
233.734253
 10
630.259766
 20
233.866669
 10
629.835388
 20
233.922333
 10
629.440247
 20
233.904282
 10
629.083679
 20
233.81752
 10
628.774109
 20
233.667877
 10
628.519165
 20
233.461288
  0
ELLIPSE
  5
2CD
330
27A
100
AcDbEntity
  8
0
  6
Continuous
 62
     0
370
     0
100
AcDbEllipse
 10
621.926589
 20
219.560635
 30
0.0
 11
5.108716523463336
 21
-4.992136180609217
 31
0.0
210
0.0
220
0.0
230
1.0
 40
0.330549
 41
0.6582540762526605
 42
2.862233986700437
  0
ELLIPSE
  5
2CE
330
27A
100
AcDbEntity
  8
0
  6
Continuous
 62
     0
370
     0
100
AcDbEllipse
 10
621.926589
 20
219.560635
 30
0.0
 11
5.108716523463336
 21
-4.992136180609217
 31
0.0
210
0.0
220
0.0
230
1.0
 40
0.330549
 41
0.279357880756117
 42
0.6582540762526605
  0
ELLIPSE
  5
2CF
330
27A
100
AcDbEntity
  8
0
  6
Continuous
 62
     0
370
     0
100
AcDbEllipse
 10
618.129218
 20
215.674586
 30
0.0
 11
4.495670540647401
 21
-4.393079838935783
 31
0.0
210
0.0
220
0.0
230
1.0
 40
0.330549
 41
0.6582540762526596
 42
3.799846729842447
  0
ELLIPSE
  5
2D0
330
27A
100
AcDbEntity
  8
0
  6
Continuous
 62
     0
370
     0
100
AcDbEllipse
 10
618.129218
 20
215.674586
 30
0.0
 11
4.495670540647401
 21
-4.393079838935783
 31
0.0
210
0.0
220
0.0
230
1.0
 40
0.330549
 41
5.756131848482916
 42
6.941439383432246
  0
ELLIPSE
  5
2D1
330
27A
100
AcDbEntity
  8
0
  6
Continuous
 62
     0
370
     0
100
AcDbEllipse
 10
634.862449
 20
251.94489
 30
0.0
 11
-4.618824241664792
 21
-1.914800935974537
 31
0.0
210
0.0
220
0.0
230
1.0
 40
0.746595
 41
2.090770294950996
 42
3.215483110415376
  0
ELLIPSE
  5
2D2
330
27A
100
AcDbEntity
  8
0
  6
Continuous
 62
     0
370
     0
100
AcDbEllipse
 10
634.862449
 20
251.94489
 30
0.0
 11
-4.618824241664792
 21
-1.914800935974537
 31
0.0
210
0.0
220
0.0
230
1.0
 40
0.746595
 41
6.209235762519812
 42
8.373955602130582
  0
LWPOLYLINE
  5
2D3
330
27A
100
AcDbEntity
  8
0
  6
Continuous
 62
     0
370
    30
100
AcDbPolyline
 90
       15
 70
     0
 43
0.0
 10
632.691772
 20
244.12468
 10
632.913025
 20
243.677338
 10
633.191101
 20
243.270905
 10
633.521851
 20
242.913818
 10
633.900269
 20
242.613739
 10
634.320251
 20
242.376511
 10
634.775024
 20
242.205994
 10
635.257446
 20
242.103516
 10
635.760681
 20
242.068161
 10
636.278564
 20
242.09726
 10
636.805359
 20
242.187134
 10
637.335938
 20
242.333282
 10
637.865417
 20
242.531052
 10
638.389099
 20
242.775604
 10
638.914673
 20
243.069717
  0
LWPOLYLINE
  5
2D4
330
27A
100
AcDbEntity
  8
0
  6
Continuous
 62
     0
370
    30
100
AcDbPolyline
 90
        6
 70
     0
 43
0.0
 10
641.789856
 20
246.012039
 10
641.952209
 20
246.421005
 10
642.049927
 20
246.819641
 10
642.081055
 20
247.205368
 10
642.04425
 20
247.576767
 10
641.93042
 20
247.951889
  0
ELLIPSE
  5
2D5
330
27A
100
AcDbEntity
  8
0
  6
Continuous
 62
     0
370
     0
100
AcDbEllipse
 10
633.286436
 20
255.746501
 30
0.0
 11
-6.598320345235364
 21
-2.735429908535031
 31
0.0
210
0.0
220
0.0
230
1.0
 40
0.746595
 41
1.08333697546137
 42
2.05825466494074
  0
ELLIPSE
  5
2D6
330
27A
100
AcDbEntity
  8
0
  6
Continuous
 62
     0
370
     0
100
AcDbEllipse
 10
631.819703
 20
259.284509
 30
0.0
 11
-5.806521903806688
 21
-2.407178319510648
 31
0.0
210
0.0
220
0.0
230
1.0
 40
0.746595
 41
2.090770294950998
 42
5.232362948540774
  0
ELLIPSE
  5
2D7
330
27A
100
AcDbEntity
  8
0
  6
Continuous
 62
     0
370
     0
100
AcDbEllipse
 10
631.819703
 20
259.284509
 30
0.0
 11
-5.806521903806688
 21
-2.407178319510648
 31
0.0
210
0.0
220
0.0
230
1.0
 40
0.746595
 41
5.232362948540779
 42
8.373955602130584
  0
ELLIPSE
  5
2D8
330
27A
100
AcDbEntity
  8
0
  6
Continuous
 62
     0
370
     0
100
AcDbEllipse
 10
654.864093
 20
253.267323
 30
0.0
 11
-3.576101566424365
 21
3.494495326426481
 31
0.0
210
0.0
220
0.0
230
-1.0
 40
0.330549
 41
2.483338577337144
 42
3.141592629274563
  0
ELLIPSE
  5
2D9
330
27A
100
AcDbEntity
  8
0
  6
Continuous
 62
     0
370
     0
100
AcDbEllipse
 10
654.864093
 20
253.267323
 30
0.0
 11
-3.576101566424365
 21
3.494495326426481
 31
0.0
210
0.0
220
0.0
230
-1.0
 40
0.330549
 41
-0.0000000243214009
 42
2.483338577337144
  0
ELLIPSE
  5
2DA
330
27A
100
AcDbEntity
  8
0
  6
Continuous
 62
     0
370
     0
100
AcDbEllipse
 10
658.944391
 20
257.442907
 30
0.0
 11
-5.108716523463336
 21
4.992136180609217
 31
0.0
210
0.0
220
0.0
230
-1.0
 40
0.330549
 41
2.483338577337149
 42
3.420952165521651
  0
ELLIPSE
  5
2DB
330
27A
100
AcDbEntity
  8
0
  6
Continuous
 62
     0
370
     0
100
AcDbEllipse
 10
658.944391
 20
257.442907
 30
0.0
 11
-5.108716523463336
 21
4.992136180609217
 31
0.0
210
0.0
220
0.0
230
-1.0
 40
0.330549
 41
6.003826595718623
 42
8.766523884516737
  0
ELLIPSE
  5
2DC
330
27A
100
AcDbEntity
  8
0
  6
Continuous
 62
     0
370
     0
100
AcDbEllipse
 10
662.741762
 20
261.328957
 30
0.0
 11
-4.495670540647401
 21
4.393079838935783
 31
0.0
210
0.0
220
0.0
230
-1.0
 40
0.330549
 41
2.483338577337143
 42
2.614550199317403
  0
ELLIPSE
  5
2DD
330
27A
100
AcDbEntity
  8
0
  6
Continuous
 62
     0
370
     0
100
AcDbEllipse
 10
662.741762
 20
261.328957
 30
0.0
 11
-4.495670540647401
 21
4.393079838935783
 31
0.0
210
0.0
220
0.0
230
-1.0
 40
0.330549
 41
0.5270455582991461
 42
2.483338577337143
  0
ELLIPSE
  5
2DE
330
27A
100
AcDbEntity
  8
0
  6
Continuous
 62
     0
370
     0
100
AcDbEllipse
 10
646.008531
 20
225.058653
 30
0.0
 11
4.618824241664792
 21
1.914800935974537
 31
0.0
210
0.0
220
0.0
230
-1.0
 40
0.746595
 41
2.745805700430866
 42
3.14159264863929
  0
ELLIPSE
  5
2DF
330
27A
100
AcDbEntity
  8
0
  6
Continuous
 62
     0
370
     0
100
AcDbEllipse
 10
647.584544
 20
221.257041
 30
0.0
 11
6.598320345235364
 21
2.735429908535031
 31
0.0
210
0.0
220
0.0
230
-1.0
 40
0.746595
 41
2.265967193892341
 42
3.929536870974862
  0
ELLIPSE
  5
2E0
330
27A
100
AcDbEntity
  8
0
  6
Continuous
 62
     0
370
     0
100
AcDbEllipse
 10
631.95021
 20
243.40075
 30
0.0
 11
-6.500001631229797
 21
-11.25833307457059
 31
0.0
210
0.0
220
0.0
230
-1.0
 40
0.57735
 41
0.0000000228501294
 42
1.941375605170208
  0
LINE
  5
2E1
330
27A
100
AcDbEntity
  8
0
  6
Continuous
 62
     0
370
    30
100
AcDbLine
 10
625.45021
 20
232.14242
 30
0.0
 11
626.588315
 21
231.485335
 31
0.0
  0
LINE
  5
2E2
330
27A
100
AcDbEntity
  8
0
  6
Continuous
 62
     0
370
    30
100
AcDbLine
 10
639.403271
 20
254.108831
 30
0.0
 11
650.117472
 21
247.922984
 31
0.0
  0
LINE
  5
2E3
330
27A
100
AcDbEntity
  8
0
  6
Continuous
 62
     0
370
    30
100
AcDbLine
 10
626.663466
 20
252.137638
 30
0.0
 11
626.200924
 21
251.671987
 31
0.0
  0
LWPOLYLINE
  5
2E4
330
27A
100
AcDbEntity
  8
0
  6
Continuous
 62
     0
370
    30
100
AcDbPolyline
 90
       29
 70
     0
 43
0.0
 10
625.450195
 20
232.14241
 10
624.815796
 20
232.552155
 10
624.223328
 20
233.022858
 10
623.679077
 20
233.548309
 10
623.188904
 20
234.122269
 10
622.755615
 20
234.738556
 10
622.379395
 20
235.391037
 10
622.060303
 20
236.073547
 10
621.79834
 20
236.779984
 10
621.592896
 20
237.505692
 10
621.442139
 20
238.248123
 10
621.344177
 20
239.004807
 10
621.297302
 20
239.773285
 10
621.2995
 20
240.551132
 10
621.34906
 20
241.335907
 10
621.444092
 20
242.125137
 10
621.58313
 20
242.916458
 10
621.764954
 20
243.707474
 10
621.98822
 20
244.495804
 10
622.251587
 20
245.279099
 10
622.553833
 20
246.054947
 10
622.893555
 20
246.820923
 10
623.269226
 20
247.574051
 10
623.679077
 20
248.311249
 10
624.121399
 20
249.029373
 10
624.594543
 20
249.725296
 10
625.09668
 20
250.39595
 10
625.62561
 20
251.038284
 10
626.200928
 20
251.671982
  0
LWPOLYLINE
  5
2E5
330
27A
100
AcDbEntity
  8
0
  6
Continuous
 62
     0
370
    30
100
AcDbPolyline
 90
       23
 70
     0
 43
0.0
 10
648.121582
 20
212.609497
 10
647.404358
 20
212.5811
 10
646.691223
 20
212.612595
 10
645.987549
 20
212.704971
 10
645.298767
 20
212.858917
 10
644.630432
 20
213.074814
 10
643.988281
 20
213.352936
 10
643.378357
 20
213.692047
 10
642.807495
 20
214.08963
 10
642.28241
 20
214.543106
 10
641.809814
 20
215.049866
 10
641.395569
 20
215.605347
 10
641.04425
 20
216.202682
 10
640.76062
 20
216.834808
 10
640.549194
 20
217.494659
 10
640.412415
 20
218.174255
 10
640.350769
 20
218.864792
 10
640.364502
 20
219.557755
 10
640.451538
 20
220.246414
 10
640.608887
 20
220.924789
 10
640.833496
 20
221.586899
 10
641.122375
 20
222.226776
 10
641.477783
 20
222.847488
  0
LINE
  5
2E6
330
27A
100
AcDbEntity
  8
0
  6
Continuous
 62
     0
370
    30
100
AcDbLine
 10
641.389707
 20
223.143852
 30
0.0
 11
641.501258
 21
222.575906
 31
0.0
  0
LINE
  5
2E7
330
27A
100
AcDbEntity
  8
0
  6
Continuous
 62
     0
370
    30
100
AcDbLine
 10
640.899823
 20
224.325534
 30
0.0
 11
641.389707
 21
223.143852
 31
0.0
  0
ARC
  5
2E8
330
27A
100
AcDbEntity
  8
0
  6
Continuous
 62
     0
370
    30
100
AcDbCircle
 10
656.791464
 20
255.240536
 30
0.0
 40
10.99404117772456
100
AcDbArc
 50
18.71889
 51
75.27146
  0
ARC
  5
2E9
330
27A
100
AcDbEntity
  8
0
  6
Continuous
 62
     0
370
    30
100
AcDbCircle
 10
658.164175
 20
261.505698
 30
0.0
 40
4.59340997136645
100
AcDbArc
 50
71.961368
 51
176.628007
  0
ARC
  5
2EA
330
27A
100
AcDbEntity
  8
0
  6
Continuous
 62
     0
370
    30
100
AcDbCircle
 10
663.024106
 20
256.756669
 30
0.0
 40
4.593410577359583
100
AcDbArc
 50
274.694529
 51
19.360991
  0
ARC
  5
2EB
330
27A
100
AcDbEntity
  8
0
  6
Continuous
 62
     0
370
    30
100
AcDbCircle
 10
645.6297
 20
262.37717
 30
0.0
 40
7.971727614639413
100
AcDbArc
 50
315.218232
 51
355.674165
  0
ARC
  5
2EC
330
27A
100
AcDbEntity
  8
0
  6
Continuous
 62
     0
370
    30
100
AcDbCircle
 10
664.184645
 20
244.245646
 30
0.0
 40
7.971728083146182
100
AcDbArc
 50
95.64835
 51
136.104281
  0
LINE
  5
2ED
330
27A
100
AcDbEntity
  8
0
  6
Continuous
 62
     0
370
    30
100
AcDbLine
 10
645.343957
 20
250.678974
 30
0.0
 11
651.287991
 21
256.761818
 31
0.0
  0
LINE
  5
2EE
330
27A
100
AcDbEntity
  8
0
  6
Continuous
 62
     0
370
    30
100
AcDbLine
 10
653.319682
 20
244.532736
 30
0.0
 11
658.440195
 21
249.772827
 31
0.0
  0
ARC
  5
2EF
330
27A
100
AcDbEntity
  8
0
  6
Continuous
 62
     0
370
    30
100
AcDbCircle
 10
631.420568
 20
256.746043
 30
0.0
 40
6.658543052698914
100
AcDbArc
 50
131.981598
 51
274.994764
  0
LWPOLYLINE
  5
2F0
330
27A
100
AcDbEntity
  8
0
  6
Continuous
 62
     0
370
    30
100
AcDbPolyline
 90
       35
 70
     0
 43
0.0
 10
638.181335
 20
252.675232
 10
638.667969
 20
253.187866
 10
639.10791
 20
253.738068
 10
639.496155
 20
254.322357
 10
639.827576
 20
254.937134
 10
640.098389
 20
255.577576
 10
640.30542
 20
256.238037
 10
640.445618
 20
256.912811
 10
640.515991
 20
257.596191
 10
640.513428
 20
258.282471
 10
640.436401
 20
258.965057
 10
640.286194
 20
259.63559
 10
640.064209
 20
260.285675
 10
639.771973
 20
260.90683
 10
639.412476
 20
261.491638
 10
638.991272
 20
262.034546
 10
638.514282
 20
262.530151
 10
637.987305
 20
262.973083
 10
637.416321
 20
263.359131
 10
636.807678
 20
263.68689
 10
636.167542
 20
263.955231
 10
635.502258
 20
264.163116
 10
634.81781
 20
264.309814
 10
634.119629
 20
264.395905
 10
633.412659
 20
264.422363
 10
632.702148
 20
264.390106
 10
631.993103
 20
264.30014
 10
631.290649
 20
264.153473
 10
630.599731
 20
263.951935
 10
629.925354
 20
263.697388
 10
629.2724
 20
263.391846
 10
628.645935
 20
263.03717
 10
628.050781
 20
262.635529
 10
627.492065
 20
262.189972
 10
626.966736
 20
261.69574
  0
LINE
  5
2F1
330
27A
100
AcDbEntity
  8
0
  6
Continuous
 62
     0
370
    30
100
AcDbLine
 10
630.243625
 20
250.030089
 30
0.0
 11
630.096009
 21
250.301996
 31
0.0
  0
LINE
  5
2F2
330
27A
100
AcDbEntity
  8
0
  6
Continuous
 62
     0
370
    30
100
AcDbLine
 10
638.336633
 20
252.830987
 30
0.0
 11
638.181419
 21
252.675295
 31
0.0
  0
LINE
  5
2F3
330
27A
100
AcDbEntity
  8
0
  6
Continuous
 62
     0
370
    30
100
AcDbLine
 10
639.481273
 20
253.859691
 30
0.0
 11
639.393264
 21
254.156019
 31
0.0
  0
LINE
  5
2F4
330
27A
100
AcDbEntity
  8
0
  6
Continuous
 62
     0
370
    30
100
AcDbLine
 10
632.694592
 20
244.117942
 30
0.0
 11
630.243625
 21
250.030089
 31
0.0
  0
LINE
  5
2F5
330
27A
100
AcDbEntity
  8
0
  6
Continuous
 62
     0
370
    30
100
AcDbLine
 10
641.93222
 20
247.947594
 30
0.0
 11
639.481273
 21
253.859691
 31
0.0
  0
ARC
  5
2F6
330
27A
100
AcDbEntity
  8
0
  6
Continuous
 62
     0
370
    30
100
AcDbCircle
 10
624.081405
 20
221.765496
 30
0.0
 40
10.99692876761907
100
AcDbArc
 50
202.509232
 51
255.265242
  0
LINE
  5
2F7
330
27A
100
AcDbEntity
  8
0
  6
Continuous
 62
     0
370
    30
100
AcDbLine
 10
613.513238
 20
218.724036
 30
0.0
 11
613.922243
 21
217.555522
 31
0.0
  0
ARC
  5
2F8
330
27A
100
AcDbEntity
  8
0
  6
Continuous
 62
     0
370
    30
100
AcDbCircle
 10
622.706805
 20
215.497845
 30
0.0
 40
4.593409971366445
100
AcDbArc
 50
251.961368
 51
356.628007
  0
ARC
  5
2F9
330
27A
100
AcDbEntity
  8
0
  6
Continuous
 62
     0
370
    30
100
AcDbCircle
 10
617.846874
 20
220.246874
 30
0.0
 40
4.593410577359561
100
AcDbArc
 50
94.694529
 51
199.360991
  0
ARC
  5
2FA
330
27A
100
AcDbEntity
  8
0
  6
Continuous
 62
     0
370
    30
100
AcDbCircle
 10
635.241281
 20
214.626373
 30
0.0
 40
7.971727614639833
100
AcDbArc
 50
135.218232
 51
175.674165
  0
ARC
  5
2FB
330
27A
100
AcDbEntity
  8
0
  6
Continuous
 62
     0
370
    30
100
AcDbCircle
 10
616.686335
 20
232.757897
 30
0.0
 40
7.971728083146228
100
AcDbArc
 50
275.64835
 51
316.104281
  0
LINE
  5
2FC
330
27A
100
AcDbEntity
  8
0
  6
Continuous
 62
     0
370
    30
100
AcDbLine
 10
635.677375
 20
226.478433
 30
0.0
 11
629.582989
 21
220.241725
 31
0.0
  0
LINE
  5
2FD
330
27A
100
AcDbEntity
  8
0
  6
Continuous
 62
     0
370
    30
100
AcDbLine
 10
628.525215
 20
233.467467
 30
0.0
 11
622.430786
 21
227.230716
 31
0.0
  0
LWPOLYLINE
  5
2FE
330
27A
100
AcDbEntity
  8
0
  6
Continuous
 62
     0
370
    30
100
AcDbPolyline
 90
        8
 70
     0
 43
0.0
 10
653.518066
 20
244.123764
 10
653.189819
 20
244.774963
 10
652.809021
 20
245.397049
 10
652.375061
 20
245.985184
 10
651.889221
 20
246.534378
 10
651.35614
 20
247.039169
 10
650.780701
 20
247.49411
 10
650.117493
 20
247.922989
  0
LWPOLYLINE
  5
2FF
330
27A
100
AcDbEntity
  8
0
  6
Continuous
 62
     0
370
    30
100
AcDbPolyline
 90
        8
 70
     0
 43
0.0
 10
637.117493
 20
225.406326
 10
637.767578
 20
225.070267
 10
638.447083
 20
224.794189
 10
639.148865
 20
224.57991
 10
639.865601
 20
224.429276
 10
640.59082
 20
224.343079
 10
641.319702
 20
224.319336
 10
642.108032
 20
224.361053
  0
ELLIPSE
  5
300
330
27A
100
AcDbEntity
  8
0
  6
Continuous
 62
     0
370
     0
100
AcDbEllipse
 10
534.933471
 20
136.114074
 30
0.0
 11
-12.86349384378445
 21
-22.28022490028413
 31
0.0
210
0.0
220
0.0
230
-1.0
 40
0.57735
 41
0.7853981633974484
 42
1.876812629038579
  0
ELLIPSE
  5
301
330
27A
100
AcDbEntity
  8
0
  6
Continuous
 62
     0
370
     0
100
AcDbEllipse
 10
530.824401
 20
138.486447
 30
0.0
 11
-11.03157118041756
 21
-19.10724177179579
 31
0.0
210
0.0
220
0.0
230
-1.0
 40
0.57735
 41
0.3442704021596482
 42
0.7853981633974487
  0
ELLIPSE
  5
302
330
27A
100
AcDbEntity
  8
0
  6
Continuous
 62
     0
370
     0
100
AcDbEllipse
 10
530.824401
 20
138.486447
 30
0.0
 11
-11.03157118041756
 21
-19.10724177179579
 31
0.0
210
0.0
220
0.0
230
-1.0
 40
0.57735
 41
0.7853981633974487
 42
2.797338010433156
  0
ELLIPSE
  5
303
330
27A
100
AcDbEntity
  8
0
  6
Continuous
 62
     0
370
     0
100
AcDbEllipse
 10
515.02232
 20
147.609783
 30
0.0
 11
-9.102502608737018
 21
-15.76599699436076
 31
0.0
210
0.0
220
0.0
230
-1.0
 40
0.57735
 41
0.7853981633974485
 42
3.019210548048973
  0
ELLIPSE
  5
304
330
27A
100
AcDbEntity
  8
0
  6
Continuous
 62
     0
370
     0
100
AcDbEllipse
 10
515.02232
 20
147.609783
 30
0.0
 11
-9.102502608737018
 21
-15.76599699436076
 31
0.0
210
0.0
220
0.0
230
-1.0
 40
0.57735
 41
0.1223821512411305
 42
0.7853981633974481
  0
ELLIPSE
  5
305
330
27A
100
AcDbEntity
  8
0
  6
Continuous
 62
     0
370
     0
100
AcDbEllipse
 10
539.602064
 20
133.418661
 30
0.0
 11
-14.01955136596655
 21
-24.28257526517572
 31
0.0
210
0.0
220
0.0
230
-1.0
 40
0.57735
 41
3.926990816987241
 42
7.068583470577035
  0
ELLIPSE
  5
306
330
27A
100
AcDbEntity
  8
0
  6
Continuous
 62
     0
370
     0
100
AcDbEllipse
 10
539.602064
 20
133.418661
 30
0.0
 11
-14.01955136596655
 21
-24.28257526517572
 31
0.0
210
0.0
220
0.0
230
-1.0
 40
0.57735
 41
0.785398163397449
 42
3.926990816987241
  0
ELLIPSE
  5
307
330
27A
100
AcDbEntity
  8
0
  6
Continuous
 62
     0
370
     0
100
AcDbEllipse
 10
538.801615
 20
133.8808
 30
0.0
 11
-14.51517580471929
 21
-25.14102197456828
 31
0.0
210
0.0
220
0.0
230
-1.0
 40
0.57735
 41
0.7853981633974481
 42
3.066811682114517
  0
ELLIPSE
  5
308
330
27A
100
AcDbEntity
  8
0
  6
Continuous
 62
     0
370
     0
100
AcDbEllipse
 10
538.801615
 20
133.8808
 30
0.0
 11
-14.51517580471929
 21
-25.14102197456828
 31
0.0
210
0.0
220
0.0
230
-1.0
 40
0.57735
 41
0.0747803447280234
 42
0.7853981633974477
  0
LINE
  5
309
330
27A
100
AcDbEntity
  8
0
  6
Continuous
 62
     0
370
    30
100
AcDbLine
 10
522.984228
 20
109.640562
 30
0.0
 11
523.541775
 21
109.214382
 31
0.0
  0
LINE
  5
30A
330
27A
100
AcDbEntity
  8
0
  6
Continuous
 62
     0
370
    30
100
AcDbLine
 10
551.885571
 20
159.69906
 30
0.0
 11
552.533955
 21
159.429081
 31
0.0
  0
ARC
  5
30B
330
27A
100
AcDbEntity
  8
0
  6
Continuous
 62
     0
370
    30
100
AcDbCircle
 10
554.334691
 20
123.941265
 30
0.0
 40
37.71714516637005
100
AcDbArc
 50
151.504751
 51
178.641474
  0
ARC
  5
30C
330
27A
100
AcDbEntity
  8
0
  6
Continuous
 62
     0
370
    30
100
AcDbCircle
 10
535.697239
 20
123.885259
 30
0.0
 40
19.09275163345707
100
AcDbArc
 50
177.147275
 51
228.251482
  0
LWPOLYLINE
  5
30D
330
27A
100
AcDbEntity
  8
0
  6
Continuous
 62
     0
370
    30
100
AcDbPolyline
 90
       31
 70
     0
 43
0.0
 10
551.885437
 20
159.699249
 10
550.86731
 20
160.043427
 10
549.827026
 20
160.316162
 10
548.770386
 20
160.516998
 10
547.702393
 20
160.646393
 10
546.627258
 20
160.706161
 10
545.548767
 20
160.698212
 10
544.471069
 20
160.624466
 10
543.397034
 20
160.486908
 10
542.328064
 20
160.287582
 10
541.265442
 20
160.028595
 10
540.210388
 20
159.712021
 10
539.164185
 20
159.339951
 10
538.127991
 20
158.914459
 10
537.103088
 20
158.437637
 10
536.090698
 20
157.91156
 10
535.091858
 20
157.337906
 10
534.1073
 20
156.718048
 10
533.137878
 20
156.053314
 10
532.184387
 20
155.345093
 10
531.24762
 20
154.594711
 10
530.328369
 20
153.803513
 10
529.427429
 20
152.972855
 10
528.545654
 20
152.104156
 10
527.684509
 20
151.199478
 10
526.84552
 20
150.261093
 10
526.030396
 20
149.291351
 10
525.240845
 20
148.292542
 10
524.478455
 20
147.266968
 10
523.744812
 20
146.216965
 10
523.018555
 20
145.108353
  0
LINE
  5
30E
330
27A
100
AcDbEntity
  8
0
  6
Continuous
 62
     0
370
    30
100
AcDbLine
 10
522.945537
 20
163.899415
 30
0.0
 11
538.206344
 21
158.948627
 31
0.0
  0
LINE
  5
30F
330
27A
100
AcDbEntity
  8
0
  6
Continuous
 62
     0
370
    30
100
AcDbLine
 10
504.876693
 20
132.60326
 30
0.0
 11
516.794547
 21
121.862459
 31
0.0
  0
ARC
  5
310
330
27A
100
AcDbEntity
  8
0
  6
Continuous
 62
     0
370
    30
100
AcDbCircle
 10
514.183671
 20
142.389234
 30
0.0
 40
13.50500222570648
100
AcDbArc
 50
178.085686
 51
226.437391
  0
LWPOLYLINE
  5
311
330
27A
100
AcDbEntity
  8
0
  6
Continuous
 62
     0
370
    30
100
AcDbPolyline
 90
       36
 70
     0
 43
0.0
 10
522.945557
 20
163.899414
 10
522.022095
 20
164.156967
 10
521.079956
 20
164.338593
 10
520.126526
 20
164.444839
 10
519.169373
 20
164.476303
 10
518.214783
 20
164.43428
 10
517.266479
 20
164.321808
 10
516.327637
 20
164.14212
 10
515.401489
 20
163.898468
 10
514.491394
 20
163.594116
 10
513.599792
 20
163.232132
 10
512.727539
 20
162.815308
 10
511.875458
 20
162.346359
 10
511.044312
 20
161.828003
 10
510.235077
 20
161.262573
 10
509.448792
 20
160.652298
 10
508.686554
 20
159.99939
 10
507.949432
 20
159.306061
 10
507.238525
 20
158.574524
 10
506.555115
 20
157.807144
 10
505.900909
 20
157.006531
 10
505.277527
 20
156.175278
 10
504.686676
 20
155.315994
 10
504.130035
 20
154.431351
 10
503.609283
 20
153.524246
 10
503.126007
 20
152.597687
 10
502.681885
 20
151.654648
 10
502.278534
 20
150.69809
 10
501.917389
 20
149.730606
 10
501.599823
 20
148.754593
 10
501.327209
 20
147.772446
 10
501.100861
 20
146.78656
 10
500.92218
 20
145.799347
 10
500.792511
 20
144.813126
 10
500.713379
 20
143.830185
 10
500.686218
 20
142.840363
  0
LINE
  5
312
330
27A
100
AcDbEntity
  8
0
  6
Continuous
 62
     0
370
    30
100
AcDbLine
 10
519.858148
 20
139.16752
 30
0.0
 11
521.186697
 21
141.935527
 31
0.0
  0
ELLIPSE
  5
313
330
27A
100
AcDbEntity
  8
0
  6
Continuous
 62
     0
370
     0
100
AcDbEllipse
 10
676.354827
 20
217.763733
 30
0.0
 11
-12.86349384378445
 21
-22.28022490028413
 31
0.0
210
0.0
220
0.0
230
-1.0
 40
0.57735
 41
0.7853981633974487
 42
2.832645679699541
  0
ELLIPSE
  5
314
330
27A
100
AcDbEntity
  8
0
  6
Continuous
 62
     0
370
     0
100
AcDbEllipse
 10
672.245757
 20
220.136105
 30
0.0
 11
-11.03157118041756
 21
-19.10724177179579
 31
0.0
210
0.0
220
0.0
230
-1.0
 40
0.57735
 41
0.3442704021596476
 42
0.7853981633974483
  0
ELLIPSE
  5
315
330
27A
100
AcDbEntity
  8
0
  6
Continuous
 62
     0
370
     0
100
AcDbEllipse
 10
672.245757
 20
220.136105
 30
0.0
 11
-11.03157118041756
 21
-19.10724177179579
 31
0.0
210
0.0
220
0.0
230
-1.0
 40
0.57735
 41
0.7853981633974485
 42
2.797338010433156
  0
ELLIPSE
  5
316
330
27A
100
AcDbEntity
  8
0
  6
Continuous
 62
     0
370
     0
100
AcDbEllipse
 10
656.443676
 20
229.259441
 30
0.0
 11
-9.102502608737018
 21
-15.76599699436076
 31
0.0
210
0.0
220
0.0
230
-1.0
 40
0.57735
 41
0.7853981633974483
 42
3.019210548048974
  0
ELLIPSE
  5
317
330
27A
100
AcDbEntity
  8
0
  6
Continuous
 62
     0
370
     0
100
AcDbEllipse
 10
656.443676
 20
229.259441
 30
0.0
 11
-9.102502608737018
 21
-15.76599699436076
 31
0.0
210
0.0
220
0.0
230
-1.0
 40
0.57735
 41
0.1223821512411287
 42
0.7853981633974482
  0
ELLIPSE
  5
318
330
27A
100
AcDbEntity
  8
0
  6
Continuous
 62
     0
370
     0
100
AcDbEllipse
 10
681.023421
 20
215.068319
 30
0.0
 11
-14.01955136596655
 21
-24.28257526517572
 31
0.0
210
0.0
220
0.0
230
-1.0
 40
0.57735
 41
3.926990816987241
 42
7.068583470577035
  0
ELLIPSE
  5
319
330
27A
100
AcDbEntity
  8
0
  6
Continuous
 62
     0
370
     0
100
AcDbEllipse
 10
681.023421
 20
215.068319
 30
0.0
 11
-14.01955136596655
 21
-24.28257526517572
 31
0.0
210
0.0
220
0.0
230
-1.0
 40
0.57735
 41
0.7853981633974485
 42
3.926990816987241
  0
ELLIPSE
  5
31A
330
27A
100
AcDbEntity
  8
0
  6
Continuous
 62
     0
370
     0
100
AcDbEllipse
 10
680.222971
 20
215.530458
 30
0.0
 11
-14.51517580471929
 21
-25.14102197456828
 31
0.0
210
0.0
220
0.0
230
-1.0
 40
0.57735
 41
0.7853981633974484
 42
3.066811682114426
  0
ELLIPSE
  5
31B
330
27A
100
AcDbEntity
  8
0
  6
Continuous
 62
     0
370
     0
100
AcDbEllipse
 10
680.222971
 20
215.530458
 30
0.0
 11
-14.51517580471929
 21
-25.14102197456828
 31
0.0
210
0.0
220
0.0
230
-1.0
 40
0.57735
 41
0.0747803447278234
 42
0.7853981633974483
  0
LINE
  5
31C
330
27A
100
AcDbEntity
  8
0
  6
Continuous
 62
     0
370
    30
100
AcDbLine
 10
664.405584
 20
191.29022
 30
0.0
 11
664.963131
 21
190.864041
 31
0.0
  0
LINE
  5
31D
330
27A
100
AcDbEntity
  8
0
  6
Continuous
 62
     0
370
    30
100
AcDbLine
 10
693.306927
 20
241.348718
 30
0.0
 11
693.955311
 21
241.078739
 31
0.0
  0
ARC
  5
31E
330
27A
100
AcDbEntity
  8
0
  6
Continuous
 62
     0
370
    30
100
AcDbCircle
 10
695.756047
 20
205.590924
 30
0.0
 40
37.71714516637086
100
AcDbArc
 50
151.504751
 51
178.641474
  0
ARC
  5
31F
330
27A
100
AcDbEntity
  8
0
  6
Continuous
 62
     0
370
    30
100
AcDbCircle
 10
677.118595
 20
205.534917
 30
0.0
 40
19.09275163345639
100
AcDbArc
 50
177.147275
 51
228.251482
  0
LWPOLYLINE
  5
320
330
27A
100
AcDbEntity
  8
0
  6
Continuous
 62
     0
370
    30
100
AcDbPolyline
 90
       31
 70
     0
 43
0.0
 10
693.306824
 20
241.348907
 10
692.288635
 20
241.693085
 10
691.248352
 20
241.96582
 10
690.191711
 20
242.166656
 10
689.123779
 20
242.296051
 10
688.048584
 20
242.35582
 10
686.970154
 20
242.34787
 10
685.892395
 20
242.274124
 10
684.818359
 20
242.136566
 10
683.749451
 20
241.937241
 10
682.686829
 20
241.678253
 10
681.631775
 20
241.361679
 10
680.58551
 20
240.989609
 10
679.549316
 20
240.564117
 10
678.524414
 20
240.087296
 10
677.512024
 20
239.561218
 10
676.513184
 20
238.987564
 10
675.528625
 20
238.367691
 10
674.559265
 20
237.702972
 10
673.605774
 20
236.994751
 10
672.669006
 20
236.24437
 10
671.749756
 20
235.453171
 10
670.848816
 20
234.622513
 10
669.967041
 20
233.753815
 10
669.105835
 20
232.849136
 10
668.266907
 20
231.910751
 10
667.451782
 20
230.94101
 10
666.66217
 20
229.9422
 10
665.89978
 20
228.916626
 10
665.166199
 20
227.866623
 10
664.43988
 20
226.758011
  0
LINE
  5
321
330
27A
100
AcDbEntity
  8
0
  6
Continuous
 62
     0
370
    30
100
AcDbLine
 10
664.366893
 20
245.549073
 30
0.0
 11
679.6277
 21
240.598285
 31
0.0
  0
LINE
  5
322
330
27A
100
AcDbEntity
  8
0
  6
Continuous
 62
     0
370
    30
100
AcDbLine
 10
646.298049
 20
214.252918
 30
0.0
 11
658.215903
 21
203.512117
 31
0.0
  0
ARC
  5
323
330
27A
100
AcDbEntity
  8
0
  6
Continuous
 62
     0
370
    30
100
AcDbCircle
 10
655.605027
 20
224.038892
 30
0.0
 40
13.50500222570585
100
AcDbArc
 50
178.085686
 51
226.437391
  0
LWPOLYLINE
  5
324
330
27A
100
AcDbEntity
  8
0
  6
Continuous
 62
     0
370
    30
100
AcDbPolyline
 90
       36
 70
     0
 43
0.0
 10
664.366882
 20
245.549072
 10
663.443481
 20
245.806625
 10
662.501282
 20
245.988251
 10
661.547852
 20
246.094498
 10
660.590698
 20
246.125961
 10
659.636169
 20
246.083939
 10
658.687805
 20
245.971466
 10
657.748962
 20
245.791779
 10
656.822876
 20
245.548126
 10
655.912781
 20
245.243774
 10
655.021118
 20
244.88179
 10
654.148926
 20
244.464966
 10
653.296814
 20
243.996017
 10
652.465698
 20
243.477661
 10
651.656433
 20
242.912231
 10
650.870117
 20
242.301956
 10
650.10791
 20
241.649048
 10
649.370789
 20
240.955719
 10
648.659851
 20
240.224182
 10
647.976501
 20
239.456802
 10
647.322266
 20
238.656189
 10
646.698914
 20
237.824936
 10
646.108032
 20
236.965652
 10
645.551392
 20
236.081009
 10
645.03064
 20
235.173904
 10
644.547363
 20
234.247345
 10
644.10321
 20
233.304306
 10
643.69989
 20
232.347748
 10
643.338745
 20
231.380264
 10
643.021179
 20
230.404251
 10
642.748596
 20
229.422104
 10
642.522217
 20
228.436218
 10
642.343506
 20
227.449005
 10
642.213867
 20
226.462784
 10
642.134705
 20
225.479843
 10
642.107544
 20
224.490021
  0
LINE
  5
325
330
27A
100
AcDbEntity
  8
0
  6
Continuous
 62
     0
370
    30
100
AcDbLine
 10
662.122133
 20
222.629264
 30
0.0
 11
662.608053
 21
223.585185
 31
0.0
  0
ELLIPSE
  5
326
330
27A
100
AcDbEntity
  8
0
  6
Continuous
 62
     0
370
    30
100
AcDbEllipse
 10
541.986317
 20
301.865661
 30
0.0
 11
5.758768028666769
 21
-12.21010199760848
 31
0.0
210
0.0
220
0.0
230
-1.0
 40
0.815559
 41
0.0000000452374215
 42
0.2134118560233114
  0
ELLIPSE
  5
327
330
27A
100
AcDbEntity
  8
0
  6
Continuous
 62
     0
370
    30
100
AcDbEllipse
 10
541.986317
 20
301.865661
 30
0.0
 11
5.758768028666769
 21
-12.21010199760848
 31
0.0
210
0.0
220
0.0
230
-1.0
 40
0.815559
 41
0.2134118560233114
 42
3.141592698827215
  0
ELLIPSE
  5
328
330
27A
100
AcDbEntity
  8
0
  6
Continuous
 62
     0
370
     0
100
AcDbEllipse
 10
541.201242
 20
301.495389
 30
0.0
 11
6.398631142963149
 21
-13.56677999734286
 31
0.0
210
0.0
220
0.0
230
-1.0
 40
0.815559
 41
0.2134118560233098
 42
3.141592698827144
  0
ELLIPSE
  5
329
330
27A
100
AcDbEntity
  8
0
  6
Continuous
 62
     0
370
     0
100
AcDbEllipse
 10
541.201242
 20
301.495389
 30
0.0
 11
6.398631142963149
 21
-13.56677999734286
 31
0.0
210
0.0
220
0.0
230
-1.0
 40
0.815559
 41
5.786366931866357
 42
6.496597163202896
  0
ELLIPSE
  5
32A
330
27A
100
AcDbEntity
  8
0
  6
Continuous
 62
     0
370
     0
100
AcDbEllipse
 10
541.201242
 20
301.495389
 30
0.0
 11
6.398631142963149
 21
-13.56677999734286
 31
0.0
210
0.0
220
0.0
230
-1.0
 40
0.815559
 41
3.355004509613107
 42
3.636367322855768
  0
ELLIPSE
  5
32B
330
27A
100
AcDbEntity
  8
0
  6
Continuous
 62
     0
370
    30
100
AcDbEllipse
 10
544.341541
 20
302.976478
 30
0.0
 11
5.758768028666926
 21
-12.21010199760865
 31
0.0
210
0.0
220
0.0
230
-1.0
 40
0.815559
 41
5.66479871053102
 42
6.4965971632029
  0
ELLIPSE
  5
32C
330
27A
100
AcDbEntity
  8
0
  6
Continuous
 62
     0
370
    30
100
AcDbEllipse
 10
544.341541
 20
302.976478
 30
0.0
 11
5.758768028666926
 21
-12.21010199760865
 31
0.0
210
0.0
220
0.0
230
-1.0
 40
0.815559
 41
3.355004509613109
 42
3.759979340713255
  0
ELLIPSE
  5
32D
330
27A
100
AcDbEntity
  8
0
  6
Continuous
 62
     0
370
    30
100
AcDbEllipse
 10
544.341541
 20
302.976478
 30
0.0
 11
5.758768028666926
 21
-12.21010199760865
 31
0.0
210
0.0
220
0.0
230
-1.0
 40
0.815559
 41
0.2134118560233136
 42
3.355004509613108
  0
ELLIPSE
  5
32E
330
27A
100
AcDbEntity
  8
0
  6
Continuous
 62
     0
370
    30
100
AcDbEllipse
 10
536.490795
 20
299.273755
 30
0.0
 11
5.332192619135981
 21
-11.30564999778577
 31
0.0
210
0.0
220
0.0
230
-1.0
 40
0.815559
 41
0.2892657141668957
 42
2.852309482902244
  0
ELLIPSE
  5
32F
330
27A
100
AcDbEntity
  8
0
  6
Continuous
 62
     0
370
     0
100
AcDbEllipse
 10
540.677859
 20
301.24854
 30
0.0
 11
6.398631142963162
 21
-13.56677999734285
 31
0.0
210
0.0
220
0.0
230
-1.0
 40
0.815559
 41
0.2134118560233118
 42
3.141592534259936
  0
LWPOLYLINE
  5
330
330
27A
100
AcDbEntity
  8
0
  6
Continuous
 62
     0
370
    30
100
AcDbPolyline
 90
       42
 70
     0
 43
0.0
 10
534.279236
 20
314.815308
 10
533.476929
 20
314.393066
 10
532.710815
 20
313.901001
 10
531.985901
 20
313.342804
 10
531.307007
 20
312.722046
 10
530.679016
 20
312.042358
 10
530.105103
 20
311.307831
 10
529.587402
 20
310.522827
 10
529.128052
 20
309.691742
 10
528.729065
 20
308.818939
 10
528.392578
 20
307.908783
 10
528.120239
 20
306.965851
 10
527.912415
 20
305.995056
 10
527.76947
 20
305.001434
 10
527.691528
 20
303.98999
 10
527.678955
 20
302.965729
 10
527.731995
 20
301.933655
 10
527.85083
 20
300.898773
 10
528.034668
 20
299.866089
 10
528.281921
 20
298.840637
 10
528.591125
 20
297.827423
 10
528.960632
 20
296.831421
 10
529.388855
 20
295.857697
 10
529.874084
 20
294.911133
 10
530.413574
 20
293.996246
 10
531.004456
 20
293.117401
 10
531.64386
 20
292.279083
 10
532.328918
 20
291.485626
 10
533.056702
 20
290.741455
 10
533.823792
 20
290.050293
 10
534.62616
 20
289.4151
 10
535.459656
 20
288.838837
 10
536.320251
 20
288.324402
 10
537.203857
 20
287.874786
 10
538.106323
 20
287.492889
 10
539.023682
 20
287.181641
 10
539.951599
 20
286.943359
 10
540.885315
 20
286.778717
 10
541.820068
 20
286.68811
 10
542.751038
 20
286.671936
 10
543.673401
 20
286.730621
 10
544.591309
 20
286.86673
  0
LWPOLYLINE
  5
331
330
27A
100
AcDbEntity
  8
0
  6
Continuous
 62
     0
370
    30
100
AcDbPolyline
 90
        5
 70
     0
 43
0.0
 10
540.832947
 20
315.988586
 10
539.993774
 20
316.062134
 10
539.158081
 20
316.074677
 10
538.330078
 20
316.026245
 10
537.41217
 20
315.898712
  0
LWPOLYLINE
  5
332
330
27A
100
AcDbEntity
  8
0
  6
Continuous
 62
     0
370
    30
100
AcDbPolyline
 90
        8
 70
     0
 43
0.0
 10
547.599854
 20
287.928619
 10
548.403442
 20
288.351318
 10
549.170227
 20
288.843475
 10
549.895081
 20
289.401703
 10
550.572998
 20
290.022583
 10
551.200134
 20
290.702332
 10
551.774048
 20
291.436737
 10
552.294556
 20
292.225769
  0
ARC
  5
333
330
27A
100
AcDbEntity
  8
0
  6
Continuous
 62
     0
370
    30
100
AcDbCircle
 10
539.306463
 20
305.50106
 30
0.0
 40
10.56879785242203
100
AcDbArc
 50
100.325036
 51
115.223227
  0
ELLIPSE
  5
334
330
27A
100
AcDbEntity
  8
0
  6
Continuous
 62
     0
370
     0
100
AcDbEllipse
 10
581.038522
 20
191.144969
 30
0.0
 11
-7.249999999999996
 21
-12.55736835487435
 31
0.0
210
0.0
220
0.0
230
-1.0
 40
0.57735
 41
1.066439793437392
 42
2.756290821182811
  0
ELLIPSE
  5
335
330
27A
100
AcDbEntity
  8
0
  6
Continuous
 62
     0
370
     0
100
AcDbEllipse
 10
581.038522
 20
191.144969
 30
0.0
 11
-7.249999999999996
 21
-12.55736835487435
 31
0.0
210
0.0
220
0.0
230
-1.0
 40
0.57735
 41
0.3849952410342532
 42
1.066439793437391
  0
LWPOLYLINE
  5
336
330
27A
100
AcDbEntity
  8
0
  6
Continuous
 62
     0
370
    30
100
AcDbPolyline
 90
       22
 70
     0
 43
0.0
 10
581.079712
 20
207.493576
 10
580.185547
 20
207.198212
 10
579.295532
 20
206.828964
 10
578.412415
 20
206.389099
 10
577.53894
 20
205.881332
 10
576.677612
 20
205.308289
 10
575.831177
 20
204.672592
 10
575.002258
 20
203.977097
 10
574.19397
 20
203.225708
 10
573.409607
 20
202.422623
 10
572.652344
 20
201.572021
 10
571.925415
 20
200.678085
 10
571.231995
 20
199.744995
 10
570.575378
 20
198.776962
 10
569.95874
 20
197.778137
 10
569.385193
 20
196.752838
 10
568.857361
 20
195.705978
 10
568.377625
 20
194.6427
 10
567.948303
 20
193.568161
 10
567.571777
 20
192.487518
 10
567.250061
 20
191.406174
 10
566.9776
 20
190.295502
  0
LWPOLYLINE
  5
337
330
27A
100
AcDbEntity
  8
0
  6
Continuous
 62
     0
370
    30
100
AcDbPolyline
 90
       22
 70
     0
 43
0.0
 10
566.9776
 20
190.295502
 10
566.798096
 20
189.378769
 10
566.661987
 20
188.470062
 10
566.570251
 20
187.572372
 10
566.52356
 20
186.688644
 10
566.522827
 20
185.82164
 10
566.56897
 20
184.973846
 10
566.66272
 20
184.147705
 10
566.805115
 20
183.345718
 10
566.996887
 20
182.570343
 10
567.238892
 20
181.824036
 10
567.532104
 20
181.109299
 10
567.877197
 20
180.428726
 10
568.274231
 20
179.786392
 10
568.722595
 20
179.18721
 10
569.221802
 20
178.636139
 10
569.769653
 20
178.137955
 10
570.362244
 20
177.697327
 10
570.995239
 20
177.318863
 10
571.663635
 20
177.005798
 10
572.361267
 20
176.759659
 10
573.106201
 20
176.577118
  0
ELLIPSE
  5
338
330
27A
100
AcDbEntity
  8
0
  6
Continuous
 62
     0
370
     0
100
AcDbEllipse
 10
605.644149
 20
176.938904
 30
0.0
 11
-12.86349384378445
 21
-22.28022490028413
 31
0.0
210
0.0
220
0.0
230
-1.0
 40
0.57735
 41
0.7853981633974485
 42
2.832645679699539
  0
ELLIPSE
  5
339
330
27A
100
AcDbEntity
  8
0
  6
Continuous
 62
     0
370
     0
100
AcDbEllipse
 10
601.535079
 20
179.311276
 30
0.0
 11
-11.03157118041756
 21
-19.10724177179579
 31
0.0
210
0.0
220
0.0
230
-1.0
 40
0.57735
 41
0.3442704021596511
 42
0.7853981633974483
  0
ELLIPSE
  5
33A
330
27A
100
AcDbEntity
  8
0
  6
Continuous
 62
     0
370
     0
100
AcDbEllipse
 10
601.535079
 20
179.311276
 30
0.0
 11
-11.03157118041756
 21
-19.10724177179579
 31
0.0
210
0.0
220
0.0
230
-1.0
 40
0.57735
 41
0.7853981633974486
 42
2.797338010433155
  0
ELLIPSE
  5
33B
330
27A
100
AcDbEntity
  8
0
  6
Continuous
 62
     0
370
     0
100
AcDbEllipse
 10
585.732998
 20
188.434612
 30
0.0
 11
-9.102502608737018
 21
-15.76599699436076
 31
0.0
210
0.0
220
0.0
230
-1.0
 40
0.57735
 41
0.7853981633974483
 42
2.480655718461014
  0
ELLIPSE
  5
33C
330
27A
100
AcDbEntity
  8
0
  6
Continuous
 62
     0
370
     0
100
AcDbEllipse
 10
585.732998
 20
188.434612
 30
0.0
 11
-9.102502608737018
 21
-15.76599699436076
 31
0.0
210
0.0
220
0.0
230
-1.0
 40
0.57735
 41
0.1223821512411294
 42
0.7853981633974481
  0
LWPOLYLINE
  5
33D
330
27A
100
AcDbEntity
  8
0
  6
Continuous
 62
     0
370
    30
100
AcDbPolyline
 90
       26
 70
     0
 43
0.0
 10
597.920349
 20
196.981628
 10
598.240173
 20
196.945328
 10
598.568237
 20
196.919113
 10
598.904724
 20
196.904099
 10
599.249329
 20
196.901947
 10
599.601562
 20
196.914551
 10
599.960022
 20
196.944366
 10
600.321289
 20
196.994492
 10
600.679443
 20
197.068481
 10
601.022034
 20
197.169052
 10
601.331055
 20
197.297012
 10
601.584717
 20
197.44751
 10
601.768127
 20
197.611389
 10
601.880005
 20
197.779114
 10
601.928833
 20
197.944397
 10
601.925903
 20
198.104263
 10
601.881287
 20
198.257828
 10
601.802856
 20
198.404999
 10
601.696533
 20
198.546143
 10
601.5672
 20
198.681732
 10
601.418274
 20
198.81221
 10
601.252136
 20
198.937988
 10
601.071045
 20
199.059448
 10
600.87677
 20
199.17688
 10
600.670654
 20
199.290558
 10
600.446045
 20
199.404388
  0
LWPOLYLINE
  5
33E
330
27A
100
AcDbEntity
  8
0
  6
Continuous
 62
     0
370
    30
100
AcDbPolyline
 90
       17
 70
     0
 43
0.0
 10
592.848572
 20
199.735977
 10
592.936951
 20
199.471649
 10
593.08844
 20
199.220673
 10
593.284912
 20
198.982849
 10
593.516541
 20
198.757446
 10
593.776855
 20
198.543854
 10
594.061218
 20
198.34169
 10
594.367126
 20
198.150757
 10
594.692444
 20
197.970978
 10
595.035645
 20
197.802444
 10
595.395935
 20
197.645447
 10
595.772827
 20
197.500397
 10
596.166016
 20
197.367889
 10
596.5755
 20
197.248657
 10
597.001465
 20
197.143936
 10
597.444458
 20
197.055054
 10
597.920349
 20
196.981628
  0
ELLIPSE
  5
33F
330
27A
100
AcDbEntity
  8
0
  6
Continuous
 62
     0
370
     0
100
AcDbEllipse
 10
609.512293
 20
174.705629
 30
0.0
 11
-14.51517580471929
 21
-25.14102197456828
 31
0.0
210
0.0
220
0.0
230
-1.0
 40
0.57735
 41
0.7853981633974484
 42
3.066811682114434
  0
ELLIPSE
  5
340
330
27A
100
AcDbEntity
  8
0
  6
Continuous
 62
     0
370
     0
100
AcDbEllipse
 10
609.512293
 20
174.705629
 30
0.0
 11
-14.51517580471929
 21
-25.14102197456828
 31
0.0
210
0.0
220
0.0
230
-1.0
 40
0.57735
 41
0.0747803447278085
 42
0.7853981633974484
  0
ELLIPSE
  5
341
330
27A
100
AcDbEntity
  8
0
  6
Continuous
 62
     0
370
     0
100
AcDbEllipse
 10
610.312743
 20
174.24349
 30
0.0
 11
-14.01955136596655
 21
-24.28257526517572
 31
0.0
210
0.0
220
0.0
230
-1.0
 40
0.57735
 41
3.926990816987241
 42
7.068583470577034
  0
ELLIPSE
  5
342
330
27A
100
AcDbEntity
  8
0
  6
Continuous
 62
     0
370
     0
100
AcDbEllipse
 10
610.312743
 20
174.24349
 30
0.0
 11
-14.01955136596655
 21
-24.28257526517572
 31
0.0
210
0.0
220
0.0
230
-1.0
 40
0.57735
 41
0.7853981633974483
 42
3.926990816987241
  0
LWPOLYLINE
  5
343
330
27A
100
AcDbEntity
  8
0
  6
Continuous
 62
     0
370
    30
100
AcDbPolyline
 90
       21
 70
     0
 43
0.0
 10
608.709412
 20
186.963593
 10
608.560974
 20
186.56694
 10
608.450623
 20
186.158401
 10
608.385315
 20
185.752853
 10
608.368958
 20
185.366028
 10
608.401917
 20
185.012451
 10
608.480896
 20
184.703751
 10
608.600098
 20
184.446518
 10
608.761536
 20
184.23407
 10
608.965271
 20
184.073227
 10
609.205811
 20
183.973236
 10
609.474731
 20
183.939117
 10
609.761353
 20
183.971024
 10
610.054321
 20
184.064209
 10
610.347473
 20
184.212906
 10
610.64801
 20
184.421371
 10
610.946655
 20
184.687408
 10
611.231812
 20
185.003418
 10
611.492493
 20
185.357758
 10
611.719727
 20
185.736069
 10
611.916077
 20
186.143158
  0
LWPOLYLINE
  5
344
330
27A
100
AcDbEntity
  8
0
  6
Continuous
 62
     0
370
    30
100
AcDbPolyline
 90
       21
 70
     0
 43
0.0
 10
611.916077
 20
186.143158
 10
612.058289
 20
186.520828
 10
612.168152
 20
186.918137
 10
612.236755
 20
187.321976
 10
612.257019
 20
187.716599
 10
612.225098
 20
188.085236
 10
612.141296
 20
188.412323
 10
612.009888
 20
188.685638
 10
611.838745
 20
188.897705
 10
611.637878
 20
189.046295
 10
611.417847
 20
189.134003
 10
611.175171
 20
189.167313
 10
610.900818
 20
189.143265
 10
610.601196
 20
189.054718
 10
610.286011
 20
188.898651
 10
609.967163
 20
188.6772
 10
609.657593
 20
188.397995
 10
609.369385
 20
188.073242
 10
609.11261
 20
187.718109
 10
608.893799
 20
187.348511
 10
608.709412
 20
186.963593
  0
LINE
  5
345
330
27A
100
AcDbEntity
  8
0
  6
Continuous
 62
     0
370
    30
100
AcDbLine
 10
622.596249
 20
200.523889
 30
0.0
 11
623.244633
 21
200.25391
 31
0.0
  0
LINE
  5
346
330
27A
100
AcDbEntity
  8
0
  6
Continuous
 62
     0
370
    30
100
AcDbLine
 10
593.694906
 20
150.465391
 30
0.0
 11
594.252453
 21
150.039212
 31
0.0
  0
ARC
  5
347
330
27A
100
AcDbEntity
  8
0
  6
Continuous
 62
     0
370
    30
100
AcDbCircle
 10
625.045369
 20
164.766094
 30
0.0
 40
37.71714516637052
100
AcDbArc
 50
151.504751
 51
178.641474
  0
ARC
  5
348
330
27A
100
AcDbEntity
  8
0
  6
Continuous
 62
     0
370
    30
100
AcDbCircle
 10
606.407917
 20
164.710088
 30
0.0
 40
19.09275163345604
100
AcDbArc
 50
177.147275
 51
228.251482
  0
LWPOLYLINE
  5
349
330
27A
100
AcDbEntity
  8
0
  6
Continuous
 62
     0
370
    30
100
AcDbPolyline
 90
       31
 70
     0
 43
0.0
 10
622.59613
 20
200.524078
 10
621.578003
 20
200.868256
 10
620.53772
 20
201.140991
 10
619.481018
 20
201.341827
 10
618.413086
 20
201.471222
 10
617.337891
 20
201.530991
 10
616.25946
 20
201.523041
 10
615.181763
 20
201.449295
 10
614.107727
 20
201.311737
 10
613.038757
 20
201.112411
 10
611.976135
 20
200.853424
 10
610.921082
 20
200.53685
 10
609.874817
 20
200.16478
 10
608.838623
 20
199.739288
 10
607.813721
 20
199.262466
 10
606.801392
 20
198.736389
 10
605.80249
 20
198.162735
 10
604.817993
 20
197.542877
 10
603.848572
 20
196.878143
 10
602.895081
 20
196.169922
 10
601.958313
 20
195.41954
 10
601.039062
 20
194.628342
 10
600.138123
 20
193.797684
 10
599.256348
 20
192.928986
 10
598.395142
 20
192.024307
 10
597.556213
 20
191.085922
 10
596.741089
 20
190.11618
 10
595.951538
 20
189.117371
 10
595.189087
 20
188.091797
 10
594.455505
 20
187.041794
 10
593.729187
 20
185.933182
  0
LINE
  5
34A
330
27A
100
AcDbEntity
  8
0
  6
Continuous
 62
     0
370
    30
100
AcDbLine
 10
595.483419
 20
204.131477
 30
0.0
 11
608.917022
 21
199.773456
 31
0.0
  0
LINE
  5
34B
330
27A
100
AcDbEntity
  8
0
  6
Continuous
 62
     0
370
    30
100
AcDbLine
 10
575.587371
 20
173.428089
 30
0.0
 11
587.505225
 21
162.687288
 31
0.0
  0
ARC
  5
34C
330
27A
100
AcDbEntity
  8
0
  6
Continuous
 62
     0
370
    30
100
AcDbCircle
 10
584.894349
 20
183.214063
 30
0.0
 40
13.50500222570561
100
AcDbArc
 50
178.085686
 51
226.437391
  0
LWPOLYLINE
  5
34D
330
27A
100
AcDbEntity
  8
0
  6
Continuous
 62
     0
370
    30
100
AcDbPolyline
 90
       24
 70
     0
 43
0.0
 10
585.386414
 20
204.485855
 10
584.368164
 20
204.082321
 10
583.374939
 20
203.607437
 10
582.40802
 20
203.065231
 10
581.468384
 20
202.45961
 10
580.557678
 20
201.793976
 10
579.67749
 20
201.071579
 10
578.829285
 20
200.2957
 10
578.014771
 20
199.469589
 10
577.235779
 20
198.596725
 10
576.49469
 20
197.680878
 10
575.794067
 20
196.725952
 10
575.136292
 20
195.735764
 10
574.523804
 20
194.714401
 10
573.959167
 20
193.666229
 10
573.444763
 20
192.595688
 10
572.982971
 20
191.507156
 10
572.575928
 20
190.404495
 10
572.225647
 20
189.29126
 10
571.934204
 20
188.170975
 10
571.703491
 20
187.047195
 10
571.535645
 20
185.923431
 10
571.432678
 20
184.80307
 10
571.396912
 20
183.665192
  0
LINE
  5
34E
330
27A
100
AcDbEntity
  8
0
  6
Continuous
 62
     0
370
    30
100
AcDbLine
 10
590.568826
 20
179.992349
 30
0.0
 11
591.897375
 21
182.760356
 31
0.0
  0
ELLIPSE
  5
34F
330
27A
100
AcDbEntity
  8
0
  6
Continuous
 62
     0
370
     0
100
AcDbEllipse
 10
582.105065
 20
213.422184
 30
0.0
 11
-3.448568715995931
 21
-3.620410724082828
 31
0.0
210
0.0
220
0.0
230
-1.0
 40
0.370682
 41
2.84307120637288
 42
3.141592668322072
  0
ELLIPSE
  5
350
330
27A
100
AcDbEntity
  8
0
  6
Continuous
 62
     0
370
     0
100
AcDbEllipse
 10
582.105065
 20
213.422184
 30
0.0
 11
-3.448568715995931
 21
-3.620410724082828
 31
0.0
210
0.0
220
0.0
230
-1.0
 40
0.370682
 41
0.0000000147322746
 42
2.84307120637288
  0
ELLIPSE
  5
351
330
27A
100
AcDbEntity
  8
0
  6
Continuous
 62
     0
370
     0
100
AcDbEllipse
 10
577.945059
 20
217.384735
 30
0.0
 11
-4.92652673713709
 21
-5.172015320118372
 31
0.0
210
0.0
220
0.0
230
-1.0
 40
0.370682
 41
5.984663859962679
 42
9.126256513552473
  0
ELLIPSE
  5
352
330
27A
100
AcDbEntity
  8
0
  6
Continuous
 62
     0
370
     0
100
AcDbEllipse
 10
577.945059
 20
217.384735
 30
0.0
 11
-4.92652673713709
 21
-5.172015320118372
 31
0.0
210
0.0
220
0.0
230
-1.0
 40
0.370682
 41
2.843071206372884
 42
3.461230718929307
  0
ELLIPSE
  5
353
330
27A
100
AcDbEntity
  8
0
  6
Continuous
 62
     0
370
     0
100
AcDbEllipse
 10
574.06971
 20
221.076143
 30
0.0
 11
-4.329733249122401
 21
-4.545483642193783
 31
0.0
210
0.0
220
0.0
230
-1.0
 40
0.370682
 41
0.6140906188279702
 42
2.527494486428961
  0
ELLIPSE
  5
354
330
27A
100
AcDbEntity
  8
0
  6
Continuous
 62
     0
370
    30
100
AcDbEllipse
 10
589.562903
 20
206.318331
 30
0.0
 11
-2.069141229597555
 21
-2.172246434449694
 31
0.0
210
0.0
220
0.0
230
-1.0
 40
0.370682
 41
5.984663859962678
 42
9.126256513552468
  0
ELLIPSE
  5
355
330
27A
100
AcDbEntity
  8
0
  6
Continuous
 62
     0
370
    30
100
AcDbEllipse
 10
589.562903
 20
206.318331
 30
0.0
 11
-2.069141229597555
 21
-2.172246434449694
 31
0.0
210
0.0
220
0.0
230
-1.0
 40
0.370682
 41
5.697499778454699
 42
5.984663859962678
  0
ELLIPSE
  5
356
330
27A
100
AcDbEntity
  8
0
  6
Continuous
 62
     0
370
    30
100
AcDbEllipse
 10
589.562903
 20
206.318331
 30
0.0
 11
-2.069141229597555
 21
-2.172246434449694
 31
0.0
210
0.0
220
0.0
230
-1.0
 40
0.370682
 41
2.843071206372889
 42
3.727278211779184
  0
ELLIPSE
  5
357
330
27A
100
AcDbEntity
  8
0
  6
Continuous
 62
     0
370
    30
100
AcDbEllipse
 10
589.562903
 20
206.318331
 30
0.0
 11
1.724284357997971
 21
1.810205362041425
 31
0.0
210
0.0
220
0.0
230
1.0
 40
0.370682
 41
1.869317774011792
 42
3.141592638857522
  0
ELLIPSE
  5
358
330
27A
100
AcDbEntity
  8
0
  6
Continuous
 62
     0
370
    30
100
AcDbEllipse
 10
589.562903
 20
206.318331
 30
0.0
 11
1.724284357997971
 21
1.810205362041425
 31
0.0
210
0.0
220
0.0
230
1.0
 40
0.370682
 41
-0.0000000147322696
 42
1.869317774011792
  0
ELLIPSE
  5
359
330
27A
100
AcDbEntity
  8
0
  6
Continuous
 62
     0
370
    30
100
AcDbEllipse
 10
587.2333
 20
208.53736
 30
0.0
 11
-3.448568715995935
 21
-3.620410724082831
 31
0.0
210
0.0
220
0.0
230
-1.0
 40
0.370682
 41
5.984663859962682
 42
9.12625651355247
  0
ELLIPSE
  5
35A
330
27A
100
AcDbEntity
  8
0
  6
Continuous
 62
     0
370
    30
100
AcDbEllipse
 10
587.2333
 20
208.53736
 30
0.0
 11
-3.448568715995935
 21
-3.620410724082831
 31
0.0
210
0.0
220
0.0
230
-1.0
 40
0.370682
 41
2.84307120637289
 42
3.3741111130084
  0
LINE
  5
35B
330
27A
100
AcDbEntity
  8
0
  6
Continuous
 62
     0
370
    30
100
AcDbLine
 10
591.287187
 20
208.128536
 30
0.0
 11
601.932684
 21
197.988325
 31
0.0
  0
LINE
  5
35C
330
27A
100
AcDbEntity
  8
0
  6
Continuous
 62
     0
370
    30
100
AcDbLine
 10
587.838618
 20
204.508125
 30
0.0
 11
594.712411
 21
197.960596
 31
0.0
  0
LINE
  5
35D
330
27A
100
AcDbEntity
  8
0
  6
Continuous
 62
     0
370
    30
100
AcDbLine
 10
590.681868
 20
212.15777
 30
0.0
 11
585.553634
 21
217.042594
 31
0.0
  0
LINE
  5
35E
330
27A
100
AcDbEntity
  8
0
  6
Continuous
 62
     0
370
    30
100
AcDbLine
 10
583.784731
 20
204.916949
 30
0.0
 11
578.656496
 21
209.801773
 31
0.0
  0
LINE
  5
35F
330
27A
100
AcDbEntity
  8
0
  6
Continuous
 62
     0
370
    30
100
AcDbLine
 10
591.761906
 20
208.255383
 30
0.0
 11
590.898305
 21
211.76578
 31
0.0
  0
LINE
  5
360
330
27A
100
AcDbEntity
  8
0
  6
Continuous
 62
     0
370
    30
100
AcDbLine
 10
587.734988
 20
204.027804
 30
0.0
 11
584.186775
 21
204.719815
 31
0.0
  0
ARC
  5
361
330
27A
100
AcDbEntity
  8
0
  6
Continuous
 62
     0
370
    30
100
AcDbCircle
 10
580.162302
 20
215.272734
 30
0.0
 40
11.02202431363592
100
AcDbArc
 50
108.650709
 51
164.134384
  0
ARC
  5
362
330
27A
100
AcDbEntity
  8
0
  6
Continuous
 62
     0
370
    30
100
AcDbCircle
 10
578.610452
 20
221.412709
 30
0.0
 40
4.624305909541991
100
AcDbArc
 50
3.822163
 51
86.72166
  0
ARC
  5
363
330
27A
100
AcDbEntity
  8
0
  6
Continuous
 62
     0
370
    30
100
AcDbCircle
 10
574.028847
 20
216.655181
 30
0.0
 40
4.756956480010395
100
AcDbArc
 50
159.951267
 51
268.092157
  0
ARC
  5
364
330
27A
100
AcDbEntity
  8
0
  6
Continuous
 62
     0
370
    30
100
AcDbCircle
 10
578.539258
 20
220.284057
 30
0.0
 40
5.755185920081573
100
AcDbArc
 50
86.656608
 51
109.295837
  0
ARC
  5
365
330
27A
100
AcDbEntity
  8
0
  6
Continuous
 62
     0
370
    30
100
AcDbCircle
 10
590.635182
 20
222.491461
 30
0.0
 40
7.450656148919451
100
AcDbArc
 50
185.935753
 51
226.997764
  0
ARC
  5
366
330
27A
100
AcDbEntity
  8
0
  6
Continuous
 62
     0
370
    30
100
AcDbCircle
 10
573.460979
 20
204.461471
 30
0.0
 40
7.450652481639789
100
AcDbArc
 50
45.787319
 51
86.849352
  0
ELLIPSE
  5
367
330
27A
100
AcDbEntity
  8
0
  6
Continuous
 62
     0
370
     0
100
AcDbEllipse
 10
560.043033
 20
310.381924
 30
0.0
 11
-4.692329504839676
 21
9.948971998051409
 31
0.0
210
0.0
220
0.0
230
1.0
 40
0.815559
 41
1.35738447077158
 42
3.221929512883069
  0
ELLIPSE
  5
368
330
27A
100
AcDbEntity
  8
0
  6
Continuous
 62
     0
370
     0
100
AcDbEllipse
 10
560.043033
 20
310.381924
 30
0.0
 11
-4.692329504839676
 21
9.948971998051409
 31
0.0
210
0.0
220
0.0
230
1.0
 40
0.815559
 41
6.190982020932889
 42
7.640569777951166
  0
ELLIPSE
  5
369
330
27A
100
AcDbEntity
  8
0
  6
Continuous
 62
     0
370
     0
100
AcDbEllipse
 10
546.435073
 20
303.963871
 30
0.0
 11
-4.692329504839676
 21
9.948971998051409
 31
0.0
210
0.0
220
0.0
230
1.0
 40
0.815559
 41
-0.0000000452374254
 42
1.357384470771582
  0
ELLIPSE
  5
36A
330
27A
100
AcDbEntity
  8
0
  6
Continuous
 62
     0
370
     0
100
AcDbEllipse
 10
546.435073
 20
303.963871
 30
0.0
 11
-4.692329504839676
 21
9.948971998051409
 31
0.0
210
0.0
220
0.0
230
1.0
 40
0.815559
 41
1.357384470771582
 42
3.14159260835237
  0
ELLIPSE
  5
36B
330
27A
100
AcDbEntity
  8
0
  6
Continuous
 62
     0
370
     0
100
AcDbEllipse
 10
560.566416
 20
310.628772
 30
0.0
 11
-4.2657540953088
 21
9.044519998228557
 31
0.0
210
0.0
220
0.0
230
1.0
 40
0.815559
 41
4.498977124361375
 42
7.640569777951168
  0
ELLIPSE
  5
36C
330
27A
100
AcDbEntity
  8
0
  6
Continuous
 62
     0
370
     0
100
AcDbEllipse
 10
560.566416
 20
310.628772
 30
0.0
 11
-4.2657540953088
 21
9.044519998228557
 31
0.0
210
0.0
220
0.0
230
1.0
 40
0.815559
 41
1.357384470771581
 42
4.498977124361373
  0
LINE
  5
36D
330
27A
100
AcDbEntity
  8
0
  6
Continuous
 62
     0
370
    30
100
AcDbLine
 10
550.852354
 20
293.892782
 30
0.0
 11
550.548135
 21
293.770298
 31
0.0
  0
LINE
  5
36E
330
27A
100
AcDbEntity
  8
0
  6
Continuous
 62
     0
370
    30
100
AcDbLine
 10
541.474054
 20
313.778526
 30
0.0
 11
541.186244
 21
313.621825
 31
0.0
  0
LINE
  5
36F
330
27A
100
AcDbEntity
  8
0
  6
Continuous
 62
     0
370
    30
100
AcDbLine
 10
564.735021
 20
300.432796
 30
0.0
 11
565.29186
 21
300.723969
 31
0.0
  0
LINE
  5
370
330
27A
100
AcDbEntity
  8
0
  6
Continuous
 62
     0
370
    30
100
AcDbLine
 10
555.351043
 20
320.331051
 30
0.0
 11
555.92997
 21
320.575496
 31
0.0
  0
LWPOLYLINE
  5
371
330
27A
100
AcDbEntity
  8
0
  6
Continuous
 62
     0
370
    30
100
AcDbPolyline
 90
       29
 70
     0
 43
0.0
 10
569.120361
 20
312.129028
 10
568.921631
 20
312.789337
 10
568.687439
 20
313.441101
 10
568.418823
 20
314.081238
 10
568.116943
 20
314.706757
 10
567.782898
 20
315.314728
 10
567.418152
 20
315.902893
 10
567.024231
 20
316.469147
 10
566.602722
 20
317.011383
 10
566.155212
 20
317.527527
 10
565.683105
 20
318.015472
 10
565.18811
 20
318.473175
 10
564.672241
 20
318.898804
 10
564.13739
 20
319.290619
 10
563.585693
 20
319.646851
 10
563.019287
 20
319.966034
 10
562.440247
 20
320.24704
 10
561.850769
 20
320.4888
 10
561.253113
 20
320.690247
 10
560.649353
 20
320.850342
 10
560.041992
 20
320.967957
 10
559.433716
 20
321.042053
 10
558.827209
 20
321.071564
 10
558.224976
 20
321.055969
 10
557.628845
 20
320.997437
 10
557.040283
 20
320.898865
 10
556.463013
 20
320.758209
 10
555.908325
 20
320.555634
 10
555.351013
 20
320.331055
  0
ARC
  5
372
330
27A
100
AcDbEntity
  8
0
  6
Continuous
 62
     0
370
    30
100
AcDbCircle
 10
559.946888
 20
308.898265
 30
0.0
 40
9.725759254115916
100
AcDbArc
 50
299.492811
 51
19.401464
  0
LINE
  5
373
330
27A
100
AcDbEntity
  8
0
  6
Continuous
 62
     0
370
    30
100
AcDbLine
 10
541.742744
 20
313.912843
 30
0.0
 11
555.350704
 21
320.330896
 31
0.0
  0
LINE
  5
374
330
27A
100
AcDbEntity
  8
0
  6
Continuous
 62
     0
370
    30
100
AcDbLine
 10
551.127402
 20
294.014898
 30
0.0
 11
564.735362
 21
300.432952
 31
0.0
  0
ENDBLK
  5
376
330
27A
100
AcDbEntity
  8
0
100
AcDbBlockEnd
  0
BLOCK
  5
41E
330
378
100
AcDbEntity
  8
0
100
AcDbBlockBegin
  2
e
 70
     0
 10
103.959503
 20
0.0
 30
0.0
  3
e
  1

  0
LINE
  5
379
330
378
100
AcDbEntity
  8
0
  6
Continuous
 62
     0
370
    30
100
AcDbLine
 10
-30.393243
 20
437.365356
 30
0.0
 11
-28.136038
 21
437.365356
 31
0.0
  0
LINE
  5
37A
330
378
100
AcDbEntity
  8
0
  6
Continuous
 62
     0
370
    30
100
AcDbLine
 10
-30.393243
 20
415.365356
 30
0.0
 11
-28.136038
 21
415.365356
 31
0.0
  0
ARC
  5
37B
330
378
100
AcDbEntity
  8
0
  6
Continuous
 62
     0
370
    30
100
AcDbCircle
 10
-11.394648
 20
484.365779
 30
0.0
 40
47.00063261655043
100
AcDbArc
 50
279.148719
 51
47.744749
  0
ARC
  5
37C
330
378
100
AcDbEntity
  8
0
  6
Continuous
 62
     0
370
    30
100
AcDbCircle
 10
-11.394295
 20
484.365792
 30
0.0
 40
69.00038531946561
100
AcDbArc
 50
276.937221
 51
47.745473
  0
ELLIPSE
  5
37D
330
378
100
AcDbEntity
  8
0
  6
Continuous
 62
     0
370
     0
100
AcDbEllipse
 10
-19.393237
 20
458.759499
 30
0.0
 11
-6.285714285688536
 21
-8.233040983952179E-8
 31
0.0
210
0.0
220
0.0
230
1.0
 40
0.287038
 41
2.997689530702937
 42
3.141592607958186
  0
ELLIPSE
  5
37E
330
378
100
AcDbEntity
  8
0
  6
Continuous
 62
     0
370
     0
100
AcDbEllipse
 10
-19.393237
 20
458.759499
 30
0.0
 11
-6.285714285688536
 21
-8.233040983952179E-8
 31
0.0
210
0.0
220
0.0
230
1.0
 40
0.287038
 41
3.141592607958207
 42
3.586457955419715
  0
ELLIPSE
  5
37F
330
378
100
AcDbEntity
  8
0
  6
Continuous
 62
     0
370
     0
100
AcDbEllipse
 10
-19.393236
 20
393.971214
 30
0.0
 11
6.285714285688536
 21
8.233040983952172E-8
 31
0.0
210
0.0
220
0.0
230
-1.0
 40
0.287038
 41
0.4448639208524974
 42
2.696728649562169
  0
ARC
  5
380
330
378
100
AcDbEntity
  8
0
  6
Continuous
 62
     0
370
    30
100
AcDbCircle
 10
-19.393236
 20
402.619298
 30
0.0
 40
11.00067325499628
100
AcDbArc
 50
238.950472
 51
301.049543
  0
ARC
  5
381
330
378
100
AcDbEntity
  8
0
  6
Continuous
 62
     0
370
    30
100
AcDbCircle
 10
-22.843226
 20
397.158201
 30
0.0
 40
4.544725630769753
100
AcDbArc
 50
175.744894
 51
240.702633
  0
ARC
  5
382
330
378
100
AcDbEntity
  8
0
  6
Continuous
 62
     0
370
    30
100
AcDbCircle
 10
-15.969227
 20
397.179974
 30
0.0
 40
4.576442757846051
100
AcDbArc
 50
299.447653
 51
359.195115
  0
ARC
  5
383
330
378
100
AcDbEntity
  8
0
  6
Continuous
 62
     0
370
    30
100
AcDbCircle
 10
-19.393269
 20
450.109925
 30
0.0
 40
11.00196615045871
100
AcDbArc
 50
58.954317
 51
115.861448
  0
ARC
  5
384
330
378
100
AcDbEntity
  8
0
  6
Continuous
 62
     0
370
    30
100
AcDbCircle
 10
-15.969228
 20
455.550739
 30
0.0
 40
4.576442700446172
100
AcDbArc
 50
0.804883
 51
60.552346
  0
LINE
  5
385
330
378
100
AcDbEntity
  8
0
  6
Continuous
 62
     0
370
     0
100
AcDbLine
 10
-29.030521
 20
429.775402
 30
0.0
 11
-29.030521
 21
435.829642
 31
0.0
  0
LINE
  5
386
330
378
100
AcDbEntity
  8
0
  6
Continuous
 62
     0
370
     0
100
AcDbLine
 10
-29.030521
 20
416.901071
 30
0.0
 11
-29.030521
 21
429.775402
 31
0.0
  0
ARC
  5
387
330
378
100
AcDbEntity
  8
0
  6
Continuous
 62
     0
370
    30
100
AcDbCircle
 10
-22.909664
 20
414.068402
 30
0.0
 40
1.495862602445766
100
AcDbArc
 50
131.112196
 51
172.652815
  0
LINE
  5
388
330
378
100
AcDbEntity
  8
0
  6
Continuous
 62
     0
370
     0
100
AcDbLine
 10
-23.893247
 20
415.19542
 30
0.0
 11
-23.893247
 21
428.949988
 31
0.0
  0
ARC
  5
389
330
378
100
AcDbEntity
  8
0
  6
Continuous
 62
     0
370
    30
100
AcDbCircle
 10
-19.619516
 20
431.077124
 30
0.0
 40
4.77383426343127
100
AcDbArc
 50
180.382549
 51
206.460599
  0
LINE
  5
38A
330
378
100
AcDbEntity
  8
0
  6
Continuous
 62
     0
370
     0
100
AcDbLine
 10
-33.732946
 20
428.61731
 30
0.0
 11
-33.732946
 21
432.61546
 31
0.0
  0
LINE
  5
38B
330
378
100
AcDbEntity
  8
0
  6
Continuous
 62
     0
370
     0
100
AcDbLine
 10
-33.732946
 20
420.115253
 30
0.0
 11
-33.732946
 21
428.61731
 31
0.0
  0
ELLIPSE
  5
38C
330
378
100
AcDbEntity
  8
0
  6
Continuous
 62
     0
370
     0
100
AcDbEllipse
 10
-19.393244
 20
416.255067
 30
0.0
 11
7.142857142828369
 21
8.083484548021565E-7
 31
0.0
210
0.0
220
0.0
230
-1.0
 40
0.932834
 41
2.346193944722814
 42
2.764495990469868
  0
ELLIPSE
  5
38D
330
378
100
AcDbEntity
  8
0
  6
Continuous
 62
     0
370
     0
100
AcDbEllipse
 10
-19.393244
 20
416.255067
 30
0.0
 11
7.142857142828369
 21
8.083484548021565E-7
 31
0.0
210
0.0
220
0.0
230
-1.0
 40
0.932834
 41
0.448582540261539
 42
0.7953989515012452
  0
ELLIPSE
  5
38E
330
378
100
AcDbEntity
  8
0
  6
Continuous
 62
     0
370
     0
100
AcDbEllipse
 10
-19.393245
 20
446.770482
 30
0.0
 11
-4.99999999997993
 21
8.441751355529680E-8
 31
0.0
210
0.0
220
0.0
230
-1.0
 40
0.360307
 41
-0.0000000468586885
 42
3.141592606731089
  0
LINE
  5
38F
330
378
100
AcDbEntity
  8
0
  6
Continuous
 62
     0
370
    30
100
AcDbLine
 10
-14.393245
 20
443.402116
 30
0.0
 11
-14.393245
 21
446.770482
 31
0.0
  0
ELLIPSE
  5
390
330
378
100
AcDbEntity
  8
0
  6
Continuous
 62
     0
370
     0
100
AcDbEllipse
 10
-19.393245
 20
452.540896
 30
0.0
 11
-7.142857142828413
 21
1.205964479361373E-7
 31
0.0
210
0.0
220
0.0
230
-1.0
 40
0.360307
 41
-0.0000000468586867
 42
3.141592606731078
  0
ELLIPSE
  5
391
330
378
100
AcDbEntity
  8
0
  6
Continuous
 62
     0
370
     0
100
AcDbEllipse
 10
-19.393245
 20
452.540896
 30
0.0
 11
-7.142857142828413
 21
1.205964479361373E-7
 31
0.0
210
0.0
220
0.0
230
-1.0
 40
0.360307
 41
5.97419871569812
 42
6.2831852603209
  0
ELLIPSE
  5
392
330
378
100
AcDbEntity
  8
0
  6
Continuous
 62
     0
370
     0
100
AcDbEllipse
 10
-19.393245
 20
452.540896
 30
0.0
 11
-7.142857142828413
 21
1.205964479361373E-7
 31
0.0
210
0.0
220
0.0
230
-1.0
 40
0.360307
 41
3.14159260673109
 42
3.450579025560518
  0
ELLIPSE
  5
393
330
378
100
AcDbEntity
  8
0
  6
Continuous
 62
     0
370
     0
100
AcDbEllipse
 10
-19.393245
 20
457.911188
 30
0.0
 11
-6.285714285688536
 21
1.061248741837929E-7
 31
0.0
210
0.0
220
0.0
230
-1.0
 40
0.360307
 41
0.58800520445394
 42
2.553588080449643
  0
LINE
  5
394
330
378
100
AcDbEntity
  8
0
  6
Continuous
 62
     0
370
    30
100
AcDbLine
 10
-14.393246
 20
431.049343
 30
0.0
 11
-14.393246
 21
431.33157
 31
0.0
  0
ARC
  5
395
330
378
100
AcDbEntity
  8
0
  6
Continuous
 62
     0
370
    30
100
AcDbCircle
 10
-19.367578
 20
431.014811
 30
0.0
 40
4.974452480868088
100
AcDbArc
 50
204.524701
 51
0.39774
  0
ELLIPSE
  5
396
330
378
100
AcDbEntity
  8
0
  6
Continuous
 62
     0
370
     0
100
AcDbEllipse
 10
-19.393247
 20
438.549919
 30
0.0
 11
-6.285714285688496
 21
-7.113466402258449E-7
 31
0.0
210
0.0
220
0.0
230
1.0
 40
0.932834
 41
6.283185185862408
 42
9.424777839452195
  0
ELLIPSE
  5
397
330
378
100
AcDbEntity
  8
0
  6
Continuous
 62
     0
370
     0
100
AcDbEllipse
 10
-19.393247
 20
438.549919
 30
0.0
 11
-6.285714285688496
 21
-7.113466402258449E-7
 31
0.0
210
0.0
220
0.0
230
1.0
 40
0.932834
 41
3.141592532272619
 42
6.283185185862408
  0
ELLIPSE
  5
398
330
378
100
AcDbEntity
  8
0
  6
Continuous
 62
     0
370
     0
100
AcDbEllipse
 10
-19.393246
 20
405.96023
 30
0.0
 11
4.99999999997993
 21
-8.441751355529680E-8
 31
0.0
210
0.0
220
0.0
230
1.0
 40
0.360307
 41
0.0000000468587116
 42
3.141592700448493
  0
LINE
  5
399
330
378
100
AcDbEntity
  8
0
  6
Continuous
 62
     0
370
    30
100
AcDbLine
 10
-14.393245
 20
414.238516
 30
0.0
 11
-14.393246
 21
405.96023
 31
0.0
  0
LWPOLYLINE
  5
39A
330
378
100
AcDbEntity
  8
0
  6
Continuous
 62
     0
370
    30
100
AcDbPolyline
 90
       23
 70
     0
 43
0.0
 10
-14.393246
 20
414.238525
 10
-14.431376
 20
414.474213
 10
-14.544856
 20
414.732483
 10
-14.731242
 20
415.007324
 10
-14.986442
 20
415.291504
 10
-15.305893
 20
415.577454
 10
-15.684704
 20
415.8573
 10
-16.117504
 20
416.122833
 10
-16.598825
 20
416.365753
 10
-17.122885
 20
416.577881
 10
-17.683121
 20
416.751068
 10
-18.271687
 20
416.878174
 10
-18.879608
 20
416.953033
 10
-19.496632
 20
416.972076
 10
-20.111805
 20
416.934052
 10
-20.714354
 20
416.841217
 10
-21.294342
 20
416.697906
 10
-21.843306
 20
416.510834
 10
-22.35376
 20
416.287506
 10
-22.819456
 20
416.036102
 10
-23.234756
 20
415.764893
 10
-23.594395
 20
415.481995
 10
-23.893248
 20
415.195435
  0
ELLIPSE
  5
39B
330
378
100
AcDbEntity
  8
0
  6
Continuous
 62
     0
370
     0
100
AcDbEllipse
 10
-19.393246
 20
400.189817
 30
0.0
 11
7.142857142828413
 21
-1.205964479361373E-7
 31
0.0
210
0.0
220
0.0
230
1.0
 40
0.360307
 41
0.3089855388441727
 42
2.832606890379931
  0
ELLIPSE
  5
39C
330
378
100
AcDbEntity
  8
0
  6
Continuous
 62
     0
370
     0
100
AcDbEllipse
 10
-19.393246
 20
394.819524
 30
0.0
 11
6.285714285688536
 21
-1.061248741837929E-7
 31
0.0
210
0.0
220
0.0
230
1.0
 40
0.360307
 41
5.695171409003553
 42
6.28318535403829
  0
ELLIPSE
  5
39D
330
378
100
AcDbEntity
  8
0
  6
Continuous
 62
     0
370
     0
100
AcDbEllipse
 10
-19.393246
 20
394.819524
 30
0.0
 11
6.285714285688536
 21
-1.061248741837929E-7
 31
0.0
210
0.0
220
0.0
230
1.0
 40
0.360307
 41
3.141592700448494
 42
3.729606514286227
  0
ELLIPSE
  5
39E
330
378
100
AcDbEntity
  8
0
  6
Continuous
 62
     0
370
     0
100
AcDbEllipse
 10
-19.393246
 20
394.819524
 30
0.0
 11
6.285714285688536
 21
-1.061248741837929E-7
 31
0.0
210
0.0
220
0.0
230
1.0
 40
0.360307
 41
0.0000000468587071
 42
3.141592700448494
  0
LINE
  5
39F
330
378
100
AcDbEntity
  8
0
  6
Continuous
 62
     0
370
     0
100
AcDbLine
 10
-7.393247
 20
439.36536
 30
0.0
 11
-7.393247
 21
414.324786
 31
0.0
  0
LINE
  5
3A0
330
378
100
AcDbEntity
  8
0
  6
Continuous
 62
     0
370
     0
100
AcDbLine
 10
-7.393247
 20
414.324786
 30
0.0
 11
-7.393247
 21
413.365353
 31
0.0
  0
LINE
  5
3A1
330
378
100
AcDbEntity
  8
0
  6
Continuous
 62
     0
370
    30
100
AcDbLine
 10
-2.393247
 20
418.955774
 30
0.0
 11
-2.393247
 21
418.365353
 31
0.0
  0
LINE
  5
3A2
330
378
100
AcDbEntity
  8
0
  6
Continuous
 62
     0
370
    30
100
AcDbLine
 10
-2.393247
 20
434.36536
 30
0.0
 11
-2.393247
 21
418.955774
 31
0.0
  0
LINE
  5
3A3
330
378
100
AcDbEntity
  8
0
  6
Continuous
 62
     0
370
    30
100
AcDbLine
 10
-7.393247
 20
413.365356
 30
0.0
 11
-14.393245
 21
413.365356
 31
0.0
  0
LINE
  5
3A4
330
378
100
AcDbEntity
  8
0
  6
Continuous
 62
     0
370
    30
100
AcDbLine
 10
-7.393247
 20
439.365356
 30
0.0
 11
-11.664816
 21
439.365356
 31
0.0
  0
ARC
  5
3A5
330
378
100
AcDbEntity
  8
0
  6
Continuous
 62
     0
370
    30
100
AcDbCircle
 10
-7.39416
 20
434.364447
 30
0.0
 40
5.000913014709798
100
AcDbArc
 50
0.01046
 51
89.98954
  0
ARC
  5
3A6
330
378
100
AcDbEntity
  8
0
  6
Continuous
 62
     0
370
    30
100
AcDbCircle
 10
-7.39416
 20
418.366266
 30
0.0
 40
5.000913014709733
100
AcDbArc
 50
270.01046
 51
359.98954
  0
ARC
  5
3A7
330
378
100
AcDbEntity
  8
0
  6
Continuous
 62
     0
370
    30
100
AcDbCircle
 10
-19.393246
 20
403.237887
 30
0.0
 40
10.99781155739509
100
AcDbArc
 50
241.604918
 51
298.395093
  0
ARC
  5
3A8
330
378
100
AcDbEntity
  8
0
  6
Continuous
 62
     0
370
    30
100
AcDbCircle
 10
-16.051941
 20
397.85639
 30
0.0
 40
4.65876385371581
100
AcDbArc
 50
0.310686
 51
41.978894
  0
ARC
  5
3A9
330
378
100
AcDbEntity
  8
0
  6
Continuous
 62
     0
370
    30
100
AcDbCircle
 10
-22.670364
 20
397.850171
 30
0.0
 40
4.710794891173137
100
AcDbArc
 50
138.487041
 51
245.508636
  0
ARC
  5
3AA
330
378
100
AcDbEntity
  8
0
  6
Continuous
 62
     0
370
    30
100
AcDbCircle
 10
-16.317696
 20
397.99278
 30
0.0
 40
4.925703664062921
100
AcDbArc
 50
295.937362
 51
358.707248
  0
ARC
  5
3AB
330
378
100
AcDbEntity
  8
0
  6
Continuous
 62
     0
370
    30
100
AcDbCircle
 10
-6.802676
 20
405.886157
 30
0.0
 40
7.590931062442372
100
AcDbArc
 50
179.440893
 51
220.339451
  0
ARC
  5
3AC
330
378
100
AcDbEntity
  8
0
  6
Continuous
 62
     0
370
    30
100
AcDbCircle
 10
-31.983815
 20
405.886158
 30
0.0
 40
7.590930974800165
100
AcDbArc
 50
319.660545
 51
0.559104
  0
LINE
  5
3AD
330
378
100
AcDbEntity
  8
0
  6
Continuous
 62
     0
370
    30
100
AcDbLine
 10
-24.393245
 20
414.259759
 30
0.0
 11
-24.393246
 21
405.96023
 31
0.0
  0
LWPOLYLINE
  5
3AE
330
378
100
AcDbEntity
  8
0
  6
Continuous
 62
     0
370
    30
100
AcDbPolyline
 90
       65
 70
     0
 43
0.0
 10
-11.393247
 20
437.367188
 10
-11.432398
 20
436.602722
 10
-11.549576
 20
435.845093
 10
-11.744074
 20
435.103394
 10
-12.013107
 20
434.384949
 10
-12.35298
 20
433.696472
 10
-12.75999
 20
433.044525
 10
-13.230436
 20
432.43573
 10
-13.760141
 20
431.876282
 10
-14.343291
 20
431.370514
 10
-14.973731
 20
430.922455
 10
-15.645302
 20
430.536194
 10
-16.351843
 20
430.215759
 10
-17.086859
 20
429.964203
 10
-17.843224
 20
429.782898
 10
-18.613741
 20
429.673065
 10
-19.391216
 20
429.635895
 10
-20.16848
 20
429.672302
 10
-20.93856
 20
429.781708
 10
-21.694582
 20
429.962708
 10
-22.429672
 20
430.213837
 10
-23.136965
 20
430.533508
 10
-23.809629
 20
430.918884
 10
-24.440851
 20
431.366455
 10
-25.023815
 20
431.872833
 10
-25.551962
 20
432.434265
 10
-26.020796
 20
433.044983
 10
-26.42683
 20
433.698242
 10
-26.766588
 20
434.387238
 10
-27.036592
 20
435.105225
 10
-27.233362
 20
435.845367
 10
-27.353422
 20
436.600922
 10
-27.393646
 20
437.365021
 10
-27.354111
 20
438.130005
 10
-27.236589
 20
438.887817
 10
-27.042866
 20
439.630371
 10
-26.774736
 20
440.34964
 10
-26.434809
 20
441.038177
 10
-26.027214
 20
441.689789
 10
-25.556259
 20
442.29837
 10
-25.026493
 20
442.858093
 10
-24.443514
 20
443.364288
 10
-23.81321
 20
443.812469
 10
-23.141468
 20
444.198242
 10
-22.434557
 20
444.518005
 10
-21.699457
 20
444.769745
 10
-20.943226
 20
444.951599
 10
-20.17292
 20
445.061676
 10
-19.395597
 20
445.098389
 10
-18.618315
 20
445.061737
 10
-17.848125
 20
444.952637
 10
-17.092091
 20
444.772003
 10
-16.35726
 20
444.520782
 10
-15.65057
 20
444.200348
 10
-14.97845
 20
443.814178
 10
-14.347206
 20
443.366272
 10
-13.763146
 20
442.860596
 10
-13.232575
 20
442.301117
 10
-12.76125
 20
441.692413
 10
-12.353407
 20
441.040558
 10
-12.013021
 20
440.351929
 10
-11.744071
 20
439.632874
 10
-11.550173
 20
438.890106
 10
-11.432932
 20
438.132172
 10
-11.393247
 20
437.367188
  0
LINE
  5
3AF
330
378
100
AcDbEntity
  8
0
  6
Continuous
 62
     0
370
    30
100
AcDbLine
 10
-24.393246
 20
431.041138
 30
0.0
 11
-24.393246
 21
431.329382
 31
0.0
  0
ARC
  5
3B0
330
378
100
AcDbEntity
  8
0
  6
Continuous
 62
     0
370
    30
100
AcDbCircle
 10
-19.393245
 20
449.492826
 30
0.0
 40
10.99781155739529
100
AcDbArc
 50
61.604907
 51
118.395082
  0
ARC
  5
3B1
330
378
100
AcDbEntity
  8
0
  6
Continuous
 62
     0
370
    30
100
AcDbCircle
 10
-16.05194
 20
454.874323
 30
0.0
 40
4.658763811168338
100
AcDbArc
 50
318.021108
 51
359.689315
  0
ARC
  5
3B2
330
378
100
AcDbEntity
  8
0
  6
Continuous
 62
     0
370
    30
100
AcDbCircle
 10
-22.670363
 20
454.880542
 30
0.0
 40
4.710794853277857
100
AcDbArc
 50
114.491366
 51
221.512961
  0
ARC
  5
3B3
330
378
100
AcDbEntity
  8
0
  6
Continuous
 62
     0
370
    30
100
AcDbCircle
 10
-16.317695
 20
454.737933
 30
0.0
 40
4.925703768705102
100
AcDbArc
 50
1.292754
 51
64.06264
  0
ARC
  5
3B4
330
378
100
AcDbEntity
  8
0
  6
Continuous
 62
     0
370
    30
100
AcDbCircle
 10
-31.983815
 20
446.844556
 30
0.0
 40
7.590931062442994
100
AcDbArc
 50
359.440893
 51
40.339451
  0
ARC
  5
3B5
330
378
100
AcDbEntity
  8
0
  6
Continuous
 62
     0
370
    30
100
AcDbCircle
 10
-6.800639
 20
446.843818
 30
0.0
 40
7.592959802853979
100
AcDbArc
 50
139.666253
 51
180.553396
  0
LINE
  5
3B6
330
378
100
AcDbEntity
  8
0
  6
Continuous
 62
     0
370
    30
100
AcDbLine
 10
-24.393245
 20
443.403493
 30
0.0
 11
-24.393245
 21
446.770482
 31
0.0
  0
LWPOLYLINE
  5
3B7
330
378
100
AcDbEntity
  8
0
  6
Continuous
 62
     0
370
    30
100
AcDbPolyline
 90
        8
 70
     0
 43
0.0
 10
-14.393244
 20
409.328583
 10
-13.858675
 20
409.780396
 10
-13.367105
 20
410.276855
 10
-12.923043
 20
410.81488
 10
-12.529887
 20
411.390167
 10
-12.190589
 20
411.997986
 10
-11.908104
 20
412.633606
 10
-11.664814
 20
413.365356
  0
LWPOLYLINE
  5
3B8
330
378
100
AcDbEntity
  8
0
  6
Continuous
 62
     0
370
    30
100
AcDbPolyline
 90
        9
 70
     0
 43
0.0
 10
-27.352882
 20
414.588959
 10
-27.232855
 20
413.825043
 10
-27.035391
 20
413.076813
 10
-26.762337
 20
412.352539
 10
-26.41643
 20
411.65979
 10
-26.001936
 20
411.004913
 10
-25.523268
 20
410.394104
 10
-24.985144
 20
409.833313
 10
-24.393244
 20
409.327209
  0
LINE
  5
3B9
330
378
100
AcDbEntity
  8
0
  6
Continuous
 62
     0
370
    30
100
AcDbLine
 10
-33.732946
 20
420.115253
 30
0.0
 11
-35.393247
 21
420.109911
 31
0.0
  0
LINE
  5
3BA
330
378
100
AcDbEntity
  8
0
  6
Continuous
 62
     0
370
    30
100
AcDbLine
 10
-33.732946
 20
432.61546
 30
0.0
 11
-35.393247
 21
432.620802
 31
0.0
  0
ARC
  5
3BB
330
378
100
AcDbEntity
  8
0
  6
Continuous
 62
     0
370
    30
100
AcDbCircle
 10
-33.6993
 20
415.117507
 30
0.0
 40
4.997858748697988
100
AcDbArc
 50
20.907819
 51
90.385724
  0
ARC
  5
3BC
330
378
100
AcDbEntity
  8
0
  6
Continuous
 62
     0
370
    30
100
AcDbCircle
 10
-33.6993
 20
437.613205
 30
0.0
 40
4.997858748697793
100
AcDbArc
 50
269.614276
 51
339.092181
  0
ARC
  5
3BD
330
378
100
AcDbEntity
  8
0
  6
Continuous
 62
     0
370
    30
100
AcDbCircle
 10
-23.883067
 20
433.859433
 30
0.0
 40
5.511624610721542
100
AcDbArc
 50
129.016579
 51
159.055443
  0
ARC
  5
3BE
330
378
100
AcDbEntity
  8
0
  6
Continuous
 62
     0
370
    30
100
AcDbCircle
 10
-23.898039
 20
418.860367
 30
0.0
 40
5.493743309181362
100
AcDbArc
 50
200.894072
 51
264.828332
  0
LINE
  5
3BF
330
378
100
AcDbEntity
  8
0
  6
Continuous
 62
     0
370
     0
100
AcDbLine
 10
-70.190859
 20
452.092344
 30
0.0
 11
-70.190859
 21
426.365356
 31
0.0
  0
LINE
  5
3C0
330
378
100
AcDbEntity
  8
0
  6
Continuous
 62
     0
370
     0
100
AcDbLine
 10
-70.190859
 20
426.365356
 30
0.0
 11
-70.190859
 21
400.638369
 31
0.0
  0
LINE
  5
3C1
330
378
100
AcDbEntity
  8
0
  6
Continuous
 62
     0
370
     0
100
AcDbLine
 10
-64.379756
 20
426.365356
 30
0.0
 11
-64.379756
 21
404.302214
 31
0.0
  0
LINE
  5
3C2
330
378
100
AcDbEntity
  8
0
  6
Continuous
 62
     0
370
     0
100
AcDbLine
 10
-64.379756
 20
448.428499
 30
0.0
 11
-64.379756
 21
426.365356
 31
0.0
  0
LINE
  5
3C3
330
378
100
AcDbEntity
  8
0
  6
Continuous
 62
     0
370
    30
100
AcDbLine
 10
-35.393247
 20
436.686983
 30
0.0
 11
-35.393247
 21
426.365356
 31
0.0
  0
LINE
  5
3C4
330
378
100
AcDbEntity
  8
0
  6
Continuous
 62
     0
370
    30
100
AcDbLine
 10
-35.393247
 20
426.365356
 30
0.0
 11
-35.393247
 21
416.04373
 31
0.0
  0
LINE
  5
3C5
330
378
100
AcDbEntity
  8
0
  6
Continuous
 62
     0
370
     0
100
AcDbLine
 10
-42.032239
 20
444.570362
 30
0.0
 11
-42.032239
 21
426.365356
 31
0.0
  0
LINE
  5
3C6
330
378
100
AcDbEntity
  8
0
  6
Continuous
 62
     0
370
     0
100
AcDbLine
 10
-42.032239
 20
426.365356
 30
0.0
 11
-42.032239
 21
408.160351
 31
0.0
  0
LINE
  5
3C7
330
378
100
AcDbEntity
  8
0
  6
Continuous
 62
     0
370
    30
100
AcDbLine
 10
-76.793247
 20
426.365356
 30
0.0
 11
-76.793247
 21
398.326254
 31
0.0
  0
LINE
  5
3C8
330
378
100
AcDbEntity
  8
0
  6
Continuous
 62
     0
370
    30
100
AcDbLine
 10
-76.793247
 20
454.404459
 30
0.0
 11
-76.793247
 21
426.365356
 31
0.0
  0
LINE
  5
3C9
330
378
100
AcDbEntity
  8
0
  6
Continuous
 62
     0
370
     0
100
AcDbLine
 10
-75.661241
 20
455.395708
 30
0.0
 11
-75.661241
 21
426.365356
 31
0.0
  0
LINE
  5
3CA
330
378
100
AcDbEntity
  8
0
  6
Continuous
 62
     0
370
     0
100
AcDbLine
 10
-75.661241
 20
426.365356
 30
0.0
 11
-75.661241
 21
397.335005
 31
0.0
  0
ARC
  5
3CB
330
378
100
AcDbEntity
  8
0
  6
Continuous
 62
     0
370
    30
100
AcDbCircle
 10
-75.792803
 20
398.32676
 30
0.0
 40
1.000443885938749
100
AcDbArc
 50
180.032218
 51
277.556523
  0
ARC
  5
3CC
330
378
100
AcDbEntity
  8
0
  6
Continuous
 62
     0
370
    30
100
AcDbCircle
 10
-75.792803
 20
454.403952
 30
0.0
 40
1.000443885938609
100
AcDbArc
 50
82.443477
 51
179.967782
  0
ARC
  5
3CD
330
378
100
AcDbEntity
  8
0
  6
Continuous
 62
     0
370
    30
100
AcDbCircle
 10
-76.719298
 20
447.462394
 30
0.0
 40
8.003558644068272
100
AcDbArc
 50
35.344154
 51
82.403358
  0
ARC
  5
3CE
330
378
100
AcDbEntity
  8
0
  6
Continuous
 62
     0
370
    30
100
AcDbCircle
 10
-76.719298
 20
405.268319
 30
0.0
 40
8.003558644068004
100
AcDbArc
 50
277.596642
 51
324.655846
  0
LINE
  5
3CF
330
378
100
AcDbEntity
  8
0
  6
Continuous
 62
     0
370
    30
100
AcDbLine
 10
-42.032239
 20
444.570362
 30
0.0
 11
-64.379756
 21
448.428499
 31
0.0
  0
LINE
  5
3D0
330
378
100
AcDbEntity
  8
0
  6
Continuous
 62
     0
370
    30
100
AcDbLine
 10
-42.032239
 20
408.160351
 30
0.0
 11
-64.379756
 21
404.302214
 31
0.0
  0
ARC
  5
3D1
330
378
100
AcDbEntity
  8
0
  6
Continuous
 62
     0
370
    30
100
AcDbCircle
 10
-43.394418
 20
436.685997
 30
0.0
 40
8.001170850919834
100
AcDbArc
 50
0.014441
 51
80.197794
  0
ARC
  5
3D2
330
378
100
AcDbEntity
  8
0
  6
Continuous
 62
     0
370
    30
100
AcDbCircle
 10
-43.394418
 20
416.044716
 30
0.0
 40
8.001170850919795
100
AcDbArc
 50
279.802206
 51
359.985559
  0
ARC
  5
3D3
330
378
100
AcDbEntity
  8
0
  6
Continuous
 62
     0
370
    30
100
AcDbCircle
 10
-62.846511
 20
457.300648
 30
0.0
 40
9.003658584641851
100
AcDbArc
 50
215.342669
 51
260.19524
  0
ARC
  5
3D4
330
378
100
AcDbEntity
  8
0
  6
Continuous
 62
     0
370
    30
100
AcDbCircle
 10
-62.846511
 20
395.430065
 30
0.0
 40
9.003658584641826
100
AcDbArc
 50
99.80476
 51
144.657331
  0
LINE
  5
3D5
330
378
100
AcDbEntity
  8
0
  6
Continuous
 62
     0
370
    30
100
AcDbLine
 10
28.556289
 20
543.956137
 30
0.0
 11
10.757329
 21
524.363509
 31
0.0
  0
LINE
  5
3D6
330
378
100
AcDbEntity
  8
0
  6
Continuous
 62
     0
370
    30
100
AcDbLine
 10
28.912501
 20
544.348246
 30
0.0
 11
28.556289
 21
543.956137
 31
0.0
  0
LINE
  5
3D7
330
378
100
AcDbEntity
  8
0
  6
Continuous
 62
     0
370
     0
100
AcDbLine
 10
31.031385
 20
544.449888
 30
0.0
 11
30.635594
 21
544.014212
 31
0.0
  0
LINE
  5
3D8
330
378
100
AcDbEntity
  8
0
  6
Continuous
 62
     0
370
     0
100
AcDbLine
 10
30.635594
 20
544.014212
 30
0.0
 11
10.858971
 21
522.244625
 31
0.0
  0
LINE
  5
3D9
330
378
100
AcDbEntity
  8
0
  6
Continuous
 62
     0
370
    30
100
AcDbLine
 10
25.2255
 20
546.981999
 30
0.0
 11
7.426539
 21
527.389371
 31
0.0
  0
LINE
  5
3DA
330
378
100
AcDbEntity
  8
0
  6
Continuous
 62
     0
370
    30
100
AcDbLine
 10
25.581712
 20
547.374108
 30
0.0
 11
25.2255
 21
546.981999
 31
0.0
  0
LINE
  5
3DB
330
378
100
AcDbEntity
  8
0
  6
Continuous
 62
     0
370
    30
100
AcDbLine
 10
35.682104
 20
536.184662
 30
0.0
 11
19.201585
 21
518.043339
 31
0.0
  0
LINE
  5
3DC
330
378
100
AcDbEntity
  8
0
  6
Continuous
 62
     0
370
    30
100
AcDbLine
 10
36.01193
 20
536.547725
 30
0.0
 11
35.682104
 21
536.184662
 31
0.0
  0
LINE
  5
3DD
330
378
100
AcDbEntity
  8
0
  6
Continuous
 62
     0
370
     0
100
AcDbLine
 10
31.611139
 20
539.882937
 30
0.0
 11
15.13062
 21
521.741615
 31
0.0
  0
LINE
  5
3DE
330
378
100
AcDbEntity
  8
0
  6
Continuous
 62
     0
370
     0
100
AcDbLine
 10
31.940965
 20
540.246001
 30
0.0
 11
31.611139
 21
539.882937
 31
0.0
  0
LINE
  5
3DF
330
378
100
AcDbEntity
  8
0
  6
Continuous
 62
     0
370
    30
100
AcDbLine
 10
31.516991
 20
541.266482
 30
0.0
 11
13.718031
 21
521.673853
 31
0.0
  0
LINE
  5
3E0
330
378
100
AcDbEntity
  8
0
  6
Continuous
 62
     0
370
    30
100
AcDbLine
 10
31.873203
 20
541.65859
 30
0.0
 11
31.516991
 21
541.266482
 31
0.0
  0
LINE
  5
3E1
330
378
100
AcDbEntity
  8
0
  6
Continuous
 62
     0
370
     0
100
AcDbLine
 10
31.375769
 20
543.341798
 30
0.0
 11
11.599147
 21
521.572211
 31
0.0
  0
LINE
  5
3E2
330
378
100
AcDbEntity
  8
0
  6
Continuous
 62
     0
370
     0
100
AcDbLine
 10
31.771561
 20
543.777474
 30
0.0
 11
31.375769
 21
543.341798
 31
0.0
  0
LINE
  5
3E3
330
378
100
AcDbEntity
  8
0
  6
Continuous
 62
     0
370
    30
100
AcDbLine
 10
10.858971
 20
522.244625
 30
0.0
 11
11.599147
 21
521.572211
 31
0.0
  0
LINE
  5
3E4
330
378
100
AcDbEntity
  8
0
  6
Continuous
 62
     0
370
    30
100
AcDbLine
 10
31.031385
 20
544.449888
 30
0.0
 11
31.771561
 21
543.777474
 31
0.0
  0
ARC
  5
3E5
330
378
100
AcDbEntity
  8
0
  6
Continuous
 62
     0
370
    30
100
AcDbCircle
 10
12.607771
 20
522.682415
 30
0.0
 40
1.499957648981537
100
AcDbArc
 50
229.383333
 51
317.739832
  0
ARC
  5
3E6
330
378
100
AcDbEntity
  8
0
  6
Continuous
 62
     0
370
    30
100
AcDbCircle
 10
30.762999
 20
542.667213
 30
0.0
 40
1.499957648979416
100
AcDbArc
 50
317.752894
 51
46.109393
  0
ARC
  5
3E7
330
378
100
AcDbEntity
  8
0
  6
Continuous
 62
     0
370
    30
100
AcDbCircle
 10
14.458206
 20
521.001438
 30
0.0
 40
1.000001168827082
100
AcDbArc
 50
47.746428
 51
136.099558
  0
ARC
  5
3E8
330
378
100
AcDbEntity
  8
0
  6
Continuous
 62
     0
370
    30
100
AcDbCircle
 10
32.613342
 20
540.986174
 30
0.0
 40
0.9999734965607412
100
AcDbArc
 50
139.391627
 51
227.747839
  0
LINE
  5
3E9
330
378
100
AcDbEntity
  8
0
  6
Continuous
 62
     0
370
    30
100
AcDbLine
 10
15.13062
 20
521.741615
 30
0.0
 11
19.201585
 21
518.043339
 31
0.0
  0
LINE
  5
3EA
330
378
100
AcDbEntity
  8
0
  6
Continuous
 62
     0
370
    30
100
AcDbLine
 10
31.940965
 20
540.246001
 30
0.0
 11
36.01193
 21
536.547725
 31
0.0
  0
LINE
  5
3EB
330
378
100
AcDbEntity
  8
0
  6
Continuous
 62
     0
370
    30
100
AcDbLine
 10
7.426539
 20
527.389371
 30
0.0
 11
10.757329
 21
524.363509
 31
0.0
  0
LINE
  5
3EC
330
378
100
AcDbEntity
  8
0
  6
Continuous
 62
     0
370
    30
100
AcDbLine
 10
25.581712
 20
547.374108
 30
0.0
 11
28.912501
 21
544.348246
 31
0.0
  0
ARC
  5
3ED
330
378
100
AcDbEntity
  8
0
  6
Continuous
 62
     0
370
    30
100
AcDbCircle
 10
11.867594
 20
523.354888
 30
0.0
 40
1.500001733016674
100
AcDbArc
 50
139.393167
 51
227.746299
  0
ARC
  5
3EE
330
378
100
AcDbEntity
  8
0
  6
Continuous
 62
     0
370
    30
100
AcDbCircle
 10
30.022764
 20
543.339623
 30
0.0
 40
1.500001733017645
100
AcDbArc
 50
47.746427
 51
136.099559
  0
LINE
  5
3EF
330
378
100
AcDbEntity
  8
0
  6
Continuous
 62
     0
370
    30
100
AcDbLine
 10
-30.393243
 20
440.865356
 30
0.0
 11
-30.393243
 21
433.864974
 31
0.0
  0
LINE
  5
3F0
330
378
100
AcDbEntity
  8
0
  6
Continuous
 62
     0
370
    30
100
AcDbLine
 10
-30.393243
 20
418.865739
 30
0.0
 11
-30.393243
 21
411.865356
 31
0.0
  0
LINE
  5
3F1
330
378
100
AcDbEntity
  8
0
  6
Continuous
 62
     0
370
    30
100
AcDbLine
 10
-35.393243
 20
440.865356
 30
0.0
 11
-35.393243
 21
436.688014
 31
0.0
  0
LINE
  5
3F2
330
378
100
AcDbEntity
  8
0
  6
Continuous
 62
     0
370
    30
100
AcDbLine
 10
-35.393243
 20
416.042699
 30
0.0
 11
-35.393243
 21
411.865356
 31
0.0
  0
ARC
  5
3F3
330
378
100
AcDbEntity
  8
0
  6
Continuous
 62
     0
370
    30
100
AcDbCircle
 10
-32.893242
 20
440.863058
 30
0.0
 40
2.500001382057628
100
AcDbArc
 50
0.068892
 51
179.947314
  0
ARC
  5
3F4
330
378
100
AcDbEntity
  8
0
  6
Continuous
 62
     0
370
    30
100
AcDbCircle
 10
-32.893242
 20
411.867655
 30
0.0
 40
2.500001382057618
100
AcDbArc
 50
180.052686
 51
359.931108
  0
LINE
  5
3F5
330
378
100
AcDbEntity
  8
0
  6
Continuous
 62
     0
370
     0
100
AcDbLine
 10
9.644464
 20
532.805163
 30
0.0
 11
13.53164
 21
537.084065
 31
0.0
  0
LINE
  5
3F6
330
378
100
AcDbEntity
  8
0
  6
Continuous
 62
     0
370
     0
100
AcDbLine
 10
13.53164
 20
537.084065
 30
0.0
 11
20.403085
 21
544.64797
 31
0.0
  0
ARC
  5
3F7
330
378
100
AcDbEntity
  8
0
  6
Continuous
 62
     0
370
    30
100
AcDbCircle
 10
10.321779
 20
533.545595
 30
0.0
 40
1.00346068408202
100
AcDbArc
 50
137.943838
 51
227.549104
  0
ARC
  5
3F8
330
378
100
AcDbEntity
  8
0
  6
Continuous
 62
     0
370
    30
100
AcDbCircle
 10
19.730885
 20
543.902893
 30
0.0
 40
1.003460692733956
100
AcDbArc
 50
47.943622
 51
137.548888
  0
LINE
  5
3F9
330
378
100
AcDbEntity
  8
0
  6
Continuous
 62
     0
370
    30
100
AcDbLine
 10
21.883436
 20
543.303143
 30
0.0
 11
20.403085
 21
544.64797
 31
0.0
  0
LINE
  5
3FA
330
378
100
AcDbEntity
  8
0
  6
Continuous
 62
     0
370
    30
100
AcDbLine
 10
11.124815
 20
531.460336
 30
0.0
 11
9.644464
 21
532.805163
 31
0.0
  0
LINE
  5
3FB
330
378
100
AcDbEntity
  8
0
  6
Continuous
 62
     0
370
     0
100
AcDbLine
 10
-38.175514
 20
458.324239
 30
0.0
 11
-35.356478
 21
449.648138
 31
0.0
  0
LINE
  5
3FC
330
378
100
AcDbEntity
  8
0
  6
Continuous
 62
     0
370
     0
100
AcDbLine
 10
-38.446648
 20
459.158703
 30
0.0
 11
-38.175514
 21
458.324239
 31
0.0
  0
LINE
  5
3FD
330
378
100
AcDbEntity
  8
0
  6
Continuous
 62
     0
370
     0
100
AcDbLine
 10
-33.225691
 20
463.108229
 30
0.0
 11
-32.838356
 21
461.916136
 31
0.0
  0
LINE
  5
3FE
330
378
100
AcDbEntity
  8
0
  6
Continuous
 62
     0
370
     0
100
AcDbLine
 10
-32.838356
 20
461.916136
 30
0.0
 11
-28.811162
 21
449.521707
 31
0.0
  0
LINE
  5
3FF
330
378
100
AcDbEntity
  8
0
  6
Continuous
 62
     0
370
     0
100
AcDbLine
 10
-27.477733
 20
464.066047
 30
0.0
 11
-27.13732
 21
463.018363
 31
0.0
  0
LINE
  5
400
330
378
100
AcDbEntity
  8
0
  6
Continuous
 62
     0
370
     0
100
AcDbLine
 10
-27.13732
 20
463.018363
 30
0.0
 11
-25.658205
 21
458.466117
 31
0.0
  0
LINE
  5
401
330
378
100
AcDbEntity
  8
0
  6
Continuous
 62
     0
370
    30
100
AcDbLine
 10
-48.375589
 20
453.82967
 30
0.0
 11
-48.212909
 21
453.328992
 31
0.0
  0
LINE
  5
402
330
378
100
AcDbEntity
  8
0
  6
Continuous
 62
     0
370
    30
100
AcDbLine
 10
-48.212909
 20
453.328992
 30
0.0
 11
-46.521487
 21
448.123331
 31
0.0
  0
LINE
  5
403
330
378
100
AcDbEntity
  8
0
  6
Continuous
 62
     0
370
    30
100
AcDbLine
 10
-45.699067
 20
456.80225
 30
0.0
 11
-45.427933
 21
455.967785
 31
0.0
  0
LINE
  5
404
330
378
100
AcDbEntity
  8
0
  6
Continuous
 62
     0
370
    30
100
AcDbLine
 10
-45.427933
 20
455.967785
 30
0.0
 11
-42.608897
 21
447.291685
 31
0.0
  0
LINE
  5
405
330
378
100
AcDbEntity
  8
0
  6
Continuous
 62
     0
370
    30
100
AcDbLine
 10
-48.22108
 20
453.354142
 30
0.0
 11
-63.727317
 21
448.315861
 31
0.0
  0
LINE
  5
406
330
378
100
AcDbEntity
  8
0
  6
Continuous
 62
     0
370
    30
100
AcDbLine
 10
-46.675995
 20
448.59886
 30
0.0
 11
-53.161184
 21
446.491694
 31
0.0
  0
LINE
  5
407
330
378
100
AcDbEntity
  8
0
  6
Continuous
 62
     0
370
    30
100
AcDbLine
 10
-42.608897
 20
447.291685
 30
0.0
 11
-35.356478
 21
449.648138
 31
0.0
  0
LINE
  5
408
330
378
100
AcDbEntity
  8
0
  6
Continuous
 62
     0
370
    30
100
AcDbLine
 10
-45.699067
 20
456.80225
 30
0.0
 11
-38.446648
 21
459.158703
 31
0.0
  0
LINE
  5
409
330
378
100
AcDbEntity
  8
0
  6
Continuous
 62
     0
370
    30
100
AcDbLine
 10
-46.521487
 20
448.123331
 30
0.0
 11
-42.608897
 21
447.291685
 31
0.0
  0
LINE
  5
40A
330
378
100
AcDbEntity
  8
0
  6
Continuous
 62
     0
370
    30
100
AcDbLine
 10
-48.375589
 20
453.82967
 30
0.0
 11
-45.699067
 21
456.80225
 31
0.0
  0
ARC
  5
40B
330
378
100
AcDbEntity
  8
0
  6
Continuous
 62
     0
370
    30
100
AcDbCircle
 10
-34.153857
 20
455.298616
 30
0.0
 40
11.01991240741562
100
AcDbArc
 50
22.385845
 51
52.711865
  0
ARC
  5
40C
330
378
100
AcDbEntity
  8
0
  6
Continuous
 62
     0
370
    30
100
AcDbCircle
 10
-27.429385
 20
453.275121
 30
0.0
 40
3.999678309828976
100
AcDbArc
 50
249.78939
 51
305.781108
  0
ARC
  5
40D
330
378
100
AcDbEntity
  8
0
  6
Continuous
 62
     0
370
    30
100
AcDbCircle
 10
-29.901191
 20
460.883519
 30
0.0
 40
4.000203794928484
100
AcDbArc
 50
52.711152
 51
146.210108
  0
ARC
  5
40E
330
378
100
AcDbEntity
  8
0
  6
Continuous
 62
     0
370
    30
100
AcDbCircle
 10
-32.266369
 20
440.134402
 30
0.0
 40
10.00299654602659
100
AcDbArc
 50
69.792735
 51
107.994054
  0
ARC
  5
40F
330
378
100
AcDbEntity
  8
0
  6
Continuous
 62
     0
370
    30
100
AcDbCircle
 10
-41.538731
 20
468.671798
 30
0.0
 40
10.00299654602659
100
AcDbArc
 50
288.005946
 51
326.207265
  0
LINE
  5
410
330
378
100
AcDbEntity
  8
0
  6
Continuous
 62
     0
370
    30
100
AcDbLine
 10
7.559461
 20
531.997226
 30
0.0
 11
12.418431
 21
537.345853
 31
0.0
  0
LINE
  5
411
330
378
100
AcDbEntity
  8
0
  6
Continuous
 62
     0
370
    30
100
AcDbLine
 10
12.418431
 20
537.345853
 30
0.0
 11
21.007737
 21
546.800735
 31
0.0
  0
LINE
  5
412
330
378
100
AcDbEntity
  8
0
  6
Continuous
 62
     0
370
     0
100
AcDbLine
 10
-13.09769
 20
549.412223
 30
0.0
 11
-7.752822
 21
555.295713
 31
0.0
  0
LINE
  5
413
330
378
100
AcDbEntity
  8
0
  6
Continuous
 62
     0
370
     0
100
AcDbLine
 10
-7.752822
 20
555.295713
 30
0.0
 11
1.695414
 21
565.696083
 31
0.0
  0
LINE
  5
414
330
378
100
AcDbEntity
  8
0
  6
Continuous
 62
     0
370
     0
100
AcDbLine
 10
11.491739
 20
537.812954
 30
0.0
 11
20.939975
 21
548.213324
 31
0.0
  0
LINE
  5
415
330
378
100
AcDbEntity
  8
0
  6
Continuous
 62
     0
370
     0
100
AcDbLine
 10
6.146872
 20
531.929464
 30
0.0
 11
11.491739
 21
537.812954
 31
0.0
  0
LINE
  5
416
330
378
100
AcDbEntity
  8
0
  6
Continuous
 62
     0
370
    30
100
AcDbLine
 10
-8.306481
 20
556.173439
 30
0.0
 11
0.282825
 21
565.628321
 31
0.0
  0
LINE
  5
417
330
378
100
AcDbEntity
  8
0
  6
Continuous
 62
     0
370
    30
100
AcDbLine
 10
-13.165451
 20
550.824812
 30
0.0
 11
-8.306481
 21
556.173439
 31
0.0
  0
ARC
  5
418
330
378
100
AcDbEntity
  8
0
  6
Continuous
 62
     0
370
    30
100
AcDbCircle
 10
6.81908
 20
532.674551
 30
0.0
 40
1.003460684081944
100
AcDbArc
 50
227.943622
 51
317.548888
  0
ARC
  5
419
330
378
100
AcDbEntity
  8
0
  6
Continuous
 62
     0
370
    30
100
AcDbCircle
 10
20.262654
 20
547.472884
 30
0.0
 40
1.003460692738241
100
AcDbArc
 50
317.943838
 51
47.549104
  0
ARC
  5
41A
330
378
100
AcDbEntity
  8
0
  6
Continuous
 62
     0
370
    30
100
AcDbCircle
 10
-12.420368
 20
550.152663
 30
0.0
 40
1.00346068408389
100
AcDbArc
 50
137.943838
 51
227.549104
  0
ARC
  5
41B
330
378
100
AcDbEntity
  8
0
  6
Continuous
 62
     0
370
    30
100
AcDbCircle
 10
1.023206
 20
564.950997
 30
0.0
 40
1.00346069273599
100
AcDbArc
 50
47.943622
 51
137.548888
  0
LINE
  5
41C
330
378
100
AcDbEntity
  8
0
  6
Continuous
 62
     0
370
    30
100
AcDbLine
 10
20.939975
 20
548.213324
 30
0.0
 11
1.695414
 21
565.696083
 31
0.0
  0
LINE
  5
41D
330
378
100
AcDbEntity
  8
0
  6
Continuous
 62
     0
370
    30
100
AcDbLine
 10
6.146872
 20
531.929464
 30
0.0
 11
-13.09769
 21
549.412223
 31
0.0
  0
ENDBLK
  5
41F
330
378
100
AcDbEntity
  8
0
100
AcDbBlockEnd
  0
ENDSEC
  0
SECTION
  2
ENTITIES
  0
INSERT
  5
E1
330
1F
100
AcDbEntity
  8
0
  6
Continuous
 62
     7
420
 16250871
370
     0
100
AcDbBlockReference
  2
a
 10
107.140549
 20
85.826683
 30
0.0
  0
INSERT
  5
1CB
330
1F
100
AcDbEntity
  8
0
  6
Continuous
 62
     7
420
 16250871
370
     0
100
AcDbBlockReference
  2
b
 10
107.140549
 20
85.826683
 30
0.0
  0
INSERT
  5
279
330
1F
100
AcDbEntity
  8
0
  6
Continuous
 62
     7
420
 16250871
370
     0
100
AcDbBlockReference
  2
c
 10
107.140549
 20
85.826683
 30
0.0
  0
INSERT
  5
377
330
1F
100
AcDbEntity
  8
0
  6
Continuous
 62
     7
420
 16250871
370
     0
100
AcDbBlockReference
  2
d
 10
107.140549
 20
85.826683
 30
0.0
  0
INSERT
  5
420
330
1F
100
AcDbEntity
  8
0
  6
Continuous
 62
     7
420
 16250871
370
     0
100
AcDbBlockReference
  2
e
 10
103.959503
 20
0.0
 30
0.0
  0
ENDSEC
  0
SECTION
  2
OBJECTS
  0
DICTIONARY
  5
C
330
0
100
AcDbDictionary
281
     1
  3
ACAD_DETAILVIEWSTYLE
350
458
  3
ACAD_GROUP
350
D
  3
ACAD_LAYOUT
350
1A
  3
ACAD_MATERIAL
350
43
  3
ACAD_MLEADERSTYLE
350
6B
  3
ACAD_MLINESTYLE
350
17
  3
ACAD_PLOTSETTINGS
350
19
  3
ACAD_PLOTSTYLENAME
350
E
  3
ACAD_SCALELIST
350
47
  3
ACAD_SECTIONVIEWSTYLE
350
459
  3
ACAD_TABLESTYLE
350
69
  3
ACAD_VISUALSTYLE
350
2A
  3
ACDB_RECOMPOSE_DATA
350
455
  3
AcDbVariableDictionary
350
421
  0
SUN
  5
6D
330
29
100
AcDbSun
 90
        1
290
     0
 63
     7
421
 16777215
 40
1.0
291
     1
 91
  2455826
 92
 54000000
292
     0
 70
     2
 71
   256
280
     1
  0
DICTIONARY
  5
458
102
{ACAD_REACTORS
330
C
102
}
330
C
100
AcDbDictionary
281
     1
  0
DICTIONARY
  5
D
102
{ACAD_REACTORS
330
C
102
}
330
C
100
AcDbDictionary
281
     1
  0
DICTIONARY
  5
1A
102
{ACAD_REACTORS
330
C
102
}
330
C
100
AcDbDictionary
281
     1
  3
Layout1
350
1E
  3
Layout2
350
26
  3
Model
350
22
  0
DICTIONARY
  5
43
102
{ACAD_REACTORS
330
C
102
}
330
C
100
AcDbDictionary
281
     1
  3
ByBlock
350
45
  3
ByLayer
350
44
  3
Global
350
46
  0
DICTIONARY
  5
6B
102
{ACAD_REACTORS
330
C
102
}
330
C
100
AcDbDictionary
281
     1
  3
Standard
350
6C
  0
DICTIONARY
  5
17
102
{ACAD_REACTORS
330
C
102
}
330
C
100
AcDbDictionary
281
     1
  3
Standard
350
18
  0
DICTIONARY
  5
19
102
{ACAD_REACTORS
330
C
102
}
330
C
100
AcDbDictionary
281
     1
  0
ACDBDICTIONARYWDFLT
  5
E
102
{ACAD_REACTORS
330
C
102
}
330
C
100
AcDbDictionary
281
     1
  3
Normal
350
F
100
AcDbDictionaryWithDefault
340
F
  0
DICTIONARY
  5
47
102
{ACAD_REACTORS
330
C
102
}
330
C
100
AcDbDictionary
281
     1
  3
A0
350
48
  3
A1
350
49
  3
A2
350
4A
  3
A3
350
4B
  3
A4
350
4C
  3
A5
350
4D
  3
A6
350
4E
  3
A7
350
4F
  3
A8
350
50
  3
A9
350
51
  3
B0
350
52
  3
B1
350
53
  3
B2
350
54
  3
B3
350
55
  3
B4
350
56
  3
B5
350
57
  3
B6
350
58
  3
B7
350
59
  3
B8
350
5A
  3
B9
350
5B
  3
C0
350
5C
  3
C1
350
5D
  3
C2
350
5E
  3
C3
350
5F
  3
C4
350
60
  3
C5
350
61
  3
C6
350
62
  3
C7
350
63
  3
C8
350
64
  3
C9
350
65
  3
D0
350
66
  3
D1
350
67
  3
D2
350
68
  0
DICTIONARY
  5
459
102
{ACAD_REACTORS
330
C
102
}
330
C
100
AcDbDictionary
281
     1
  0
DICTIONARY
  5
69
102
{ACAD_REACTORS
330
C
102
}
330
C
100
AcDbDictionary
281
     1
  3
Standard
350
6A
  0
DICTIONARY
  5
2A
102
{ACAD_REACTORS
330
C
102
}
330
C
100
AcDbDictionary
281
     1
  3
2dWireframe
350
2F
  3
Basic
350
32
  3
Brighten
350
36
  3
ColorChange
350
3A
  3
Conceptual
350
34
  3
Dim
350
35
  3
EdgeColorOff
350
3D
  3
Facepattern
350
39
  3
Flat
350
2B
  3
FlatWithEdges
350
2C
  3
Gouraud
350
2D
  3
GouraudWithEdges
350
2E
  3
Hidden
350
31
  3
JitterOff
350
3B
  3
Linepattern
350
38
  3
OverhangOff
350
3C
  3
Realistic
350
33
  3
Shaded
350
42
  3
Shaded with edges
350
41
  3
Shades of Gray
350
3E
  3
Sketchy
350
3F
  3
Thicken
350
37
  3
Wireframe
350
30
  3
X-Ray
350
40
  0
XRECORD
  5
455
102
{ACAD_REACTORS
330
C
102
}
330
C
100
AcDbXrecord
280
     1
 90
        1
330
6A
  0
DICTIONARY
  5
421
102
{ACAD_REACTORS
330
C
102
}
330
C
100
AcDbDictionary
281
     1
  3
CANNOSCALE
350
422
  3
CMLEADERSTYLE
350
457
  3
CTABLESTYLE
350
456
  0
LAYOUT
  5
1E
102
{ACAD_REACTORS
330
1A
102
}
330
1A
100
AcDbPlotSettings
  1

  2
none_device
  4

  6

 40
0.0
 41
0.0
 42
0.0
 43
0.0
 44
0.0
 45
0.0
 46
0.0
 47
0.0
 48
0.0
 49
0.0
140
0.0
141
0.0
142
1.0
143
1.0
 70
   688
 72
     1
 73
     0
 74
     5
  7

 75
    16
 76
     0
 77
     2
 78
   300
147
1.0
148
0.0
149
0.0
100
AcDbLayout
  1
Layout1
 70
     1
 71
     1
 10
0.0
 20
0.0
 11
420.0
 21
297.0
 12
0.0
 22
0.0
 32
0.0
 14
1.000000E+20
 24
1.000000E+20
 34
1.000000E+20
 15
-1.000000E+20
 25
-1.000000E+20
 35
-1.000000E+20
146
0.0
 13
0.0
 23
0.0
 33
0.0
 16
1.0
 26
0.0
 36
0.0
 17
0.0
 27
1.0
 37
0.0
 76
     0
330
1B
  0
LAYOUT
  5
26
102
{ACAD_REACTORS
330
1A
102
}
330
1A
100
AcDbPlotSettings
  1

  2
none_device
  4

  6

 40
0.0
 41
0.0
 42
0.0
 43
0.0
 44
0.0
 45
0.0
 46
0.0
 47
0.0
 48
0.0
 49
0.0
140
0.0
141
0.0
142
1.0
143
1.0
 70
   688
 72
     1
 73
     0
 74
     5
  7

 75
    16
 76
     0
 77
     2
 78
   300
147
1.0
148
0.0
149
0.0
100
AcDbLayout
  1
Layout2
 70
     1
 71
     2
 10
0.0
 20
0.0
 11
0.0
 21
0.0
 12
0.0
 22
0.0
 32
0.0
 14
0.0
 24
0.0
 34
0.0
 15
0.0
 25
0.0
 35
0.0
146
0.0
 13
0.0
 23
0.0
 33
0.0
 16
1.0
 26
0.0
 36
0.0
 17
0.0
 27
1.0
 37
0.0
 76
     0
330
23
  0
LAYOUT
  5
22
102
{ACAD_REACTORS
330
1A
102
}
330
1A
100
AcDbPlotSettings
  1

  2
none_device
  4
Letter_(8.50_x_11.00_Inches)
  6

 40
6.35
 41
6.35
 42
6.350005
 43
6.350005
 44
215.9
 45
279.4
 46
0.0
 47
0.0
 48
0.0
 49
0.0
140
0.0
141
0.0
142
1.0
143
1.0
 70
  1712
 72
     1
 73
     0
 74
     0
  7

 75
     0
 76
     0
 77
     2
 78
   300
147
1.0
148
0.0
149
0.0
100
AcDbLayout
  1
Model
 70
     1
 71
     0
 10
0.0
 20
0.0
 11
420.0
 21
297.0
 12
0.0
 22
0.0
 32
0.0
 14
1.000000E+20
 24
1.000000E+20
 34
1.000000E+20
 15
-1.000000E+20
 25
-1.000000E+20
 35
-1.000000E+20
146
0.0
 13
0.0
 23
0.0
 33
0.0
 16
1.0
 26
0.0
 36
0.0
 17
0.0
 27
1.0
 37
0.0
 76
     0
330
1F
331
29
  0
MATERIAL
  5
45
102
{ACAD_REACTORS
330
43
102
}
330
43
100
AcDbMaterial
  1
ByBlock
 72
     1
 94
      127
  0
MATERIAL
  5
44
102
{ACAD_REACTORS
330
43
102
}
330
43
100
AcDbMaterial
  1
ByLayer
 72
     1
 94
      127
  0
MATERIAL
  5
46
102
{ACAD_REACTORS
330
43
102
}
330
43
100
AcDbMaterial
  1
Global
 72
     1
 94
      127
  0
MLEADERSTYLE
  5
6C
102
{ACAD_REACTORS
330
6B
102
}
330
6B
100
AcDbMLeaderStyle
179
     2
170
     2
171
     1
172
     0
 90
        2
 40
0.0
 41
0.0
173
     1
 91
-1056964608
340
14
 92
       -2
290
     1
 42
2.0
291
     1
 43
8.0
  3
Standard
341
0
 44
4.0
300

342
11
174
     1
178
     6
175
     1
176
     0
 93
-1056964608
 45
4.0
292
     0
297
     0
 46
4.0
343
0
 94
-1056964608
 47
1.0
 49
1.0
140
1.0
293
     1
141
0.0
294
     1
177
     0
142
1.0
295
     0
296
     0
143
3.75
271
     0
272
     9
273
     9
  0
MLINESTYLE
  5
18
102
{ACAD_REACTORS
330
17
102
}
330
17
100
AcDbMlineStyle
  2
Standard
 70
     0
  3

 62
   256
 51
90.0
 52
90.0
 71
     2
 49
0.5
 62
   256
  6
BYLAYER
 49
-0.5
 62
   256
  6
BYLAYER
  0
ACDBPLACEHOLDER
  5
F
102
{ACAD_REACTORS
330
E
102
}
330
E
  0
SCALE
  5
48
102
{ACAD_REACTORS
330
47
102
}
330
47
100
AcDbScale
 70
     0
300
1:1
140
1.0
141
1.0
290
     1
  0
SCALE
  5
49
102
{ACAD_REACTORS
330
47
102
}
330
47
100
AcDbScale
 70
     0
300
1:2
140
1.0
141
2.0
290
     0
  0
SCALE
  5
4A
102
{ACAD_REACTORS
330
47
102
}
330
47
100
AcDbScale
 70
     0
300
1:4
140
1.0
141
4.0
290
     0
  0
SCALE
  5
4B
102
{ACAD_REACTORS
330
47
102
}
330
47
100
AcDbScale
 70
     0
300
1:5
140
1.0
141
5.0
290
     0
  0
SCALE
  5
4C
102
{ACAD_REACTORS
330
47
102
}
330
47
100
AcDbScale
 70
     0
300
1:8
140
1.0
141
8.0
290
     0
  0
SCALE
  5
4D
102
{ACAD_REACTORS
330
47
102
}
330
47
100
AcDbScale
 70
     0
300
1:10
140
1.0
141
10.0
290
     0
  0
SCALE
  5
4E
102
{ACAD_REACTORS
330
47
102
}
330
47
100
AcDbScale
 70
     0
300
1:16
140
1.0
141
16.0
290
     0
  0
SCALE
  5
4F
102
{ACAD_REACTORS
330
47
102
}
330
47
100
AcDbScale
 70
     0
300
1:20
140
1.0
141
20.0
290
     0
  0
SCALE
  5
50
102
{ACAD_REACTORS
330
47
102
}
330
47
100
AcDbScale
 70
     0
300
1:30
140
1.0
141
30.0
290
     0
  0
SCALE
  5
51
102
{ACAD_REACTORS
330
47
102
}
330
47
100
AcDbScale
 70
     0
300
1:40
140
1.0
141
40.0
290
     0
  0
SCALE
  5
52
102
{ACAD_REACTORS
330
47
102
}
330
47
100
AcDbScale
 70
     0
300
1:50
140
1.0
141
50.0
290
     0
  0
SCALE
  5
53
102
{ACAD_REACTORS
330
47
102
}
330
47
100
AcDbScale
 70
     0
300
1:100
140
1.0
141
100.0
290
     0
  0
SCALE
  5
54
102
{ACAD_REACTORS
330
47
102
}
330
47
100
AcDbScale
 70
     0
300
2:1
140
2.0
141
1.0
290
     0
  0
SCALE
  5
55
102
{ACAD_REACTORS
330
47
102
}
330
47
100
AcDbScale
 70
     0
300
4:1
140
4.0
141
1.0
290
     0
  0
SCALE
  5
56
102
{ACAD_REACTORS
330
47
102
}
330
47
100
AcDbScale
 70
     0
300
8:1
140
8.0
141
1.0
290
     0
  0
SCALE
  5
57
102
{ACAD_REACTORS
330
47
102
}
330
47
100
AcDbScale
 70
     0
300
10:1
140
10.0
141
1.0
290
     0
  0
SCALE
  5
58
102
{ACAD_REACTORS
330
47
102
}
330
47
100
AcDbScale
 70
     0
300
100:1
140
100.0
141
1.0
290
     0
  0
SCALE
  5
59
102
{ACAD_REACTORS
330
47
102
}
330
47
100
AcDbScale
 70
     0
300
1/128" = 1'-0"
140
0.007812
141
12.0
290
     0
  0
SCALE
  5
5A
102
{ACAD_REACTORS
330
47
102
}
330
47
100
AcDbScale
 70
     0
300
1/64" = 1'-0"
140
0.015625
141
12.0
290
     0
  0
SCALE
  5
5B
102
{ACAD_REACTORS
330
47
102
}
330
47
100
AcDbScale
 70
     0
300
1/32" = 1'-0"
140
0.03125
141
12.0
290
     0
  0
SCALE
  5
5C
102
{ACAD_REACTORS
330
47
102
}
330
47
100
AcDbScale
 70
     0
300
1/16" = 1'-0"
140
0.0625
141
12.0
290
     0
  0
SCALE
  5
5D
102
{ACAD_REACTORS
330
47
102
}
330
47
100
AcDbScale
 70
     0
300
3/32" = 1'-0"
140
0.09375
141
12.0
290
     0
  0
SCALE
  5
5E
102
{ACAD_REACTORS
330
47
102
}
330
47
100
AcDbScale
 70
     0
300
1/8" = 1'-0"
140
0.125
141
12.0
290
     0
  0
SCALE
  5
5F
102
{ACAD_REACTORS
330
47
102
}
330
47
100
AcDbScale
 70
     0
300
3/16" = 1'-0"
140
0.1875
141
12.0
290
     0
  0
SCALE
  5
60
102
{ACAD_REACTORS
330
47
102
}
330
47
100
AcDbScale
 70
     0
300
1/4" = 1'-0"
140
0.25
141
12.0
290
     0
  0
SCALE
  5
61
102
{ACAD_REACTORS
330
47
102
}
330
47
100
AcDbScale
 70
     0
300
3/8" = 1'-0"
140
0.375
141
12.0
290
     0
  0
SCALE
  5
62
102
{ACAD_REACTORS
330
47
102
}
330
47
100
AcDbScale
 70
     0
300
1/2" = 1'-0"
140
0.5
141
12.0
290
     0
  0
SCALE
  5
63
102
{ACAD_REACTORS
330
47
102
}
330
47
100
AcDbScale
 70
     0
300
3/4" = 1'-0"
140
0.75
141
12.0
290
     0
  0
SCALE
  5
64
102
{ACAD_REACTORS
330
47
102
}
330
47
100
AcDbScale
 70
     0
300
1" = 1'-0"
140
1.0
141
12.0
290
     0
  0
SCALE
  5
65
102
{ACAD_REACTORS
330
47
102
}
330
47
100
AcDbScale
 70
     0
300
1-1/2" = 1'-0"
140
1.5
141
12.0
290
     0
  0
SCALE
  5
66
102
{ACAD_REACTORS
330
47
102
}
330
47
100
AcDbScale
 70
     0
300
3" = 1'-0"
140
3.0
141
12.0
290
     0
  0
SCALE
  5
67
102
{ACAD_REACTORS
330
47
102
}
330
47
100
AcDbScale
 70
     0
300
6" = 1'-0"
140
6.0
141
12.0
290
     0
  0
SCALE
  5
68
102
{ACAD_REACTORS
330
47
102
}
330
47
100
AcDbScale
 70
     0
300
1'-0" = 1'-0"
140
12.0
141
12.0
290
     0
  0
TABLESTYLE
  5
6A
102
{ACAD_REACTORS
330
69
102
}
102
{ACAD_XDICTIONARY
360
453
102
}
330
69
100
AcDbTableStyle
  3
Standard
 70
     0
 71
     0
 40
0.06
 41
0.06
280
     0
281
     0
  7
Standard
140
4.5
170
     2
 62
     0
 63
   257
283
     0
 90
        4
 91
        0
  1

274
    -2
284
     1
 64
     0
275
    -2
285
     1
 65
     0
276
    -2
286
     1
 66
     0
277
    -2
287
     1
 67
     0
278
    -2
288
     1
 68
     0
279
    -2
289
     1
 69
     0
  7
Standard
140
6.0
170
     5
 62
     0
 63
   257
283
     0
 90
        4
 91
        0
  1

274
    -2
284
     1
 64
     0
275
    -2
285
     1
 65
     0
276
    -2
286
     1
 66
     0
277
    -2
287
     1
 67
     0
278
    -2
288
     1
 68
     0
279
    -2
289
     1
 69
     0
  7
Standard
140
4.5
170
     5
 62
     0
 63
   257
283
     0
 90
        4
 91
        0
  1

274
    -2
284
     1
 64
     0
275
    -2
285
     1
 65
     0
276
    -2
286
     1
 66
     0
277
    -2
287
     1
 67
     0
278
    -2
288
     1
 68
     0
279
    -2
289
     1
 69
     0
  0
VISUALSTYLE
  5
2F
102
{ACAD_REACTORS
330
2A
102
}
102
{ACAD_XDICTIONARY
360
42B
102
}
330
2A
100
AcDbVisualStyle
  2
2dWireframe
 70
     4
177
     2
291
     0
 71
     0
176
     1
 72
     2
176
     1
 73
     0
176
     1
 90
        0
176
     1
 40
0.6
176
     1
 41
30.0
176
     1
 62
     5
 63
     7
421
 16777215
176
     1
 74
     1
176
     1
 91
        4
176
     1
 64
     7
176
     1
 65
   257
176
     1
 75
     1
176
     1
175
     1
176
     1
 42
1.0
176
     1
 92
        0
176
     1
 66
   257
176
     1
 43
1.0
176
     1
 76
     1
176
     1
 77
     6
176
     1
 78
     2
176
     1
 67
     7
176
     1
 79
     5
176
     1
170
     0
176
     1
171
     0
176
     1
290
     0
176
     1
 93
        1
176
     1
 44
0.0
176
     1
173
     0
176
     1
  0
VISUALSTYLE
  5
32
102
{ACAD_REACTORS
330
2A
102
}
102
{ACAD_XDICTIONARY
360
431
102
}
330
2A
100
AcDbVisualStyle
  2
Basic
 70
     7
177
     2
291
     1
 71
     1
176
     1
 72
     0
176
     1
 73
     1
176
     1
 90
        0
176
     1
 40
0.6
176
     1
 41
30.0
176
     1
 62
     5
 63
     7
421
 16777215
176
     1
 74
     0
176
     1
 91
        4
176
     1
 64
     7
176
     1
 65
   257
176
     1
 75
     1
176
     1
175
     1
176
     1
 42
1.0
176
     1
 92
        8
176
     1
 66
     7
176
     1
 43
1.0
176
     1
 76
     1
176
     1
 77
     6
176
     1
 78
     2
176
     1
 67
     7
176
     1
 79
     5
176
     1
170
     0
176
     1
171
     0
176
     1
290
     0
176
     1
 93
        1
176
     1
 44
0.0
176
     1
173
     0
176
     1
  0
VISUALSTYLE
  5
36
102
{ACAD_REACTORS
330
2A
102
}
102
{ACAD_XDICTIONARY
360
439
102
}
330
2A
100
AcDbVisualStyle
  2
Brighten
 70
    12
177
     2
291
     1
 71
     2
176
     1
 72
     2
176
     1
 73
     0
176
     1
 90
        0
176
     1
 40
0.6
176
     1
 41
30.0
176
     1
 62
     5
 63
     7
421
 16777215
176
     1
 74
     1
176
     1
 91
        4
176
     1
 64
     7
176
     1
 65
   257
176
     1
 75
     1
176
     1
175
     1
176
     1
 42
1.0
176
     1
 92
        8
176
     1
 66
     7
176
     1
 43
1.0
176
     1
 76
     1
176
     1
 77
     6
176
     1
 78
     2
176
     1
 67
     7
176
     1
 79
     5
176
     1
170
     0
176
     1
171
     0
176
     1
290
     0
176
     1
 93
        1
176
     1
 44
50.0
176
     1
173
     0
176
     1
  0
VISUALSTYLE
  5
3A
102
{ACAD_REACTORS
330
2A
102
}
102
{ACAD_XDICTIONARY
360
441
102
}
330
2A
100
AcDbVisualStyle
  2
ColorChange
 70
    16
177
     2
291
     1
 71
     2
176
     1
 72
     2
176
     1
 73
     3
176
     1
 90
        0
176
     1
 40
0.6
176
     1
 41
30.0
176
     1
 62
     5
 63
     8
421
  8421504
176
     1
 74
     1
176
     1
 91
        4
176
     1
 64
     7
176
     1
 65
   257
176
     1
 75
     1
176
     1
175
     1
176
     1
 42
1.0
176
     1
 92
        8
176
     1
 66
     8
424
  8421504
176
     1
 43
1.0
176
     1
 76
     1
176
     1
 77
     6
176
     1
 78
     2
176
     1
 67
     7
176
     1
 79
     5
176
     1
170
     0
176
     1
171
     0
176
     1
290
     0
176
     1
 93
        1
176
     1
 44
0.0
176
     1
173
     0
176
     1
  0
VISUALSTYLE
  5
34
102
{ACAD_REACTORS
330
2A
102
}
102
{ACAD_XDICTIONARY
360
435
102
}
330
2A
100
AcDbVisualStyle
  2
Conceptual
 70
     9
177
     2
291
     0
 71
     3
176
     1
 72
     2
176
     1
 73
     0
176
     1
 90
        0
176
     1
 40
0.6
176
     1
 41
30.0
176
     1
 62
     5
 63
     7
421
 16777215
176
     1
 74
     2
176
     1
 91
        2
176
     1
 64
     7
176
     1
 65
   257
176
     1
 75
     1
176
     1
175
     1
176
     1
 42
179.0
176
     1
 92
        8
176
     1
 66
     7
176
     1
 43
1.0
176
     1
 76
     1
176
     1
 77
     6
176
     1
 78
     2
176
     1
 67
     7
176
     1
 79
     3
176
     1
170
     0
176
     1
171
     0
176
     1
290
     0
176
     1
 93
        1
176
     1
 44
0.0
176
     1
173
     0
176
     1
  0
VISUALSTYLE
  5
35
102
{ACAD_REACTORS
330
2A
102
}
102
{ACAD_XDICTIONARY
360
437
102
}
330
2A
100
AcDbVisualStyle
  2
Dim
 70
    11
177
     2
291
     1
 71
     2
176
     1
 72
     2
176
     1
 73
     0
176
     1
 90
        0
176
     1
 40
0.6
176
     1
 41
30.0
176
     1
 62
     5
 63
     7
421
 16777215
176
     1
 74
     1
176
     1
 91
        4
176
     1
 64
     7
176
     1
 65
   257
176
     1
 75
     1
176
     1
175
     1
176
     1
 42
1.0
176
     1
 92
        8
176
     1
 66
     7
176
     1
 43
1.0
176
     1
 76
     1
176
     1
 77
     6
176
     1
 78
     2
176
     1
 67
     7
176
     1
 79
     5
176
     1
170
     0
176
     1
171
     0
176
     1
290
     0
176
     1
 93
        1
176
     1
 44
-50.0
176
     1
173
     0
176
     1
  0
VISUALSTYLE
  5
3D
102
{ACAD_REACTORS
330
2A
102
}
102
{ACAD_XDICTIONARY
360
447
102
}
330
2A
100
AcDbVisualStyle
  2
EdgeColorOff
 70
    22
177
     2
291
     1
 71
     2
176
     0
 72
     2
176
     0
 73
     0
176
     0
 90
        0
176
     0
 40
0.6
176
     0
 41
30.0
176
     0
 62
     5
 63
     7
421
 16777215
176
     0
 74
     1
176
     0
 91
        4
176
     0
 64
     7
176
     0
 65
   257
176
     0
 75
     1
176
     0
175
     1
176
     0
 42
1.0
176
     0
 92
        8
176
     2
 66
     7
176
     0
 43
1.0
176
     0
 76
     1
176
     0
 77
     6
176
     0
 78
     2
176
     0
 67
     7
176
     0
 79
     5
176
     0
170
     0
176
     0
171
     0
176
     0
290
     0
176
     0
 93
        1
176
     0
 44
0.0
176
     0
173
     0
176
     0
  0
VISUALSTYLE
  5
39
102
{ACAD_REACTORS
330
2A
102
}
102
{ACAD_XDICTIONARY
360
43F
102
}
330
2A
100
AcDbVisualStyle
  2
Facepattern
 70
    15
177
     2
291
     1
 71
     2
176
     1
 72
     2
176
     1
 73
     0
176
     1
 90
        0
176
     1
 40
0.6
176
     1
 41
30.0
176
     1
 62
     5
 63
     7
421
 16777215
176
     1
 74
     1
176
     1
 91
        4
176
     1
 64
     7
176
     1
 65
   257
176
     1
 75
     1
176
     1
175
     1
176
     1
 42
1.0
176
     1
 92
        8
176
     1
 66
     7
176
     1
 43
1.0
176
     1
 76
     1
176
     1
 77
     6
176
     1
 78
     2
176
     1
 67
     7
176
     1
 79
     5
176
     1
170
     0
176
     1
171
     0
176
     1
290
     0
176
     1
 93
        1
176
     1
 44
0.0
176
     1
173
     0
176
     1
  0
VISUALSTYLE
  5
2B
102
{ACAD_REACTORS
330
2A
102
}
102
{ACAD_XDICTIONARY
360
423
102
}
330
2A
100
AcDbVisualStyle
  2
Flat
 70
     0
177
     2
291
     1
 71
     2
176
     1
 72
     1
176
     1
 73
     1
176
     1
 90
        2
176
     1
 40
0.6
176
     1
 41
30.0
176
     1
 62
     5
 63
     7
421
 16777215
176
     1
 74
     0
176
     1
 91
        0
176
     1
 64
     7
176
     1
 65
   257
176
     1
 75
     1
176
     1
175
     1
176
     1
 42
1.0
176
     1
 92
        8
176
     1
 66
     7
176
     1
 43
1.0
176
     1
 76
     1
176
     1
 77
     6
176
     1
 78
     2
176
     1
 67
     7
176
     1
 79
     5
176
     1
170
     0
176
     1
171
     0
176
     1
290
     0
176
     1
 93
       13
176
     1
 44
0.0
176
     1
173
     0
176
     1
  0
VISUALSTYLE
  5
2C
102
{ACAD_REACTORS
330
2A
102
}
102
{ACAD_XDICTIONARY
360
425
102
}
330
2A
100
AcDbVisualStyle
  2
FlatWithEdges
 70
     1
177
     2
291
     1
 71
     2
176
     1
 72
     1
176
     1
 73
     1
176
     1
 90
        2
176
     1
 40
0.6
176
     1
 41
30.0
176
     1
 62
     5
 63
     7
421
 16777215
176
     1
 74
     1
176
     1
 91
        0
176
     1
 64
     7
176
     1
 65
   257
176
     1
 75
     1
176
     1
175
     1
176
     1
 42
1.0
176
     1
 92
        0
176
     1
 66
   257
176
     1
 43
1.0
176
     1
 76
     1
176
     1
 77
     6
176
     1
 78
     2
176
     1
 67
     7
176
     1
 79
     5
176
     1
170
     0
176
     1
171
     0
176
     1
290
     0
176
     1
 93
       13
176
     1
 44
0.0
176
     1
173
     0
176
     1
  0
VISUALSTYLE
  5
2D
102
{ACAD_REACTORS
330
2A
102
}
102
{ACAD_XDICTIONARY
360
427
102
}
330
2A
100
AcDbVisualStyle
  2
Gouraud
 70
     2
177
     2
291
     1
 71
     2
176
     1
 72
     2
176
     1
 73
     1
176
     1
 90
        2
176
     1
 40
0.6
176
     1
 41
30.0
176
     1
 62
     5
 63
     7
421
 16777215
176
     1
 74
     0
176
     1
 91
        0
176
     1
 64
     7
176
     1
 65
   257
176
     1
 75
     1
176
     1
175
     1
176
     1
 42
1.0
176
     1
 92
        0
176
     1
 66
     7
176
     1
 43
1.0
176
     1
 76
     1
176
     1
 77
     6
176
     1
 78
     2
176
     1
 67
     7
176
     1
 79
     5
176
     1
170
     0
176
     1
171
     0
176
     1
290
     0
176
     1
 93
       13
176
     1
 44
0.0
176
     1
173
     0
176
     1
  0
VISUALSTYLE
  5
2E
102
{ACAD_REACTORS
330
2A
102
}
102
{ACAD_XDICTIONARY
360
429
102
}
330
2A
100
AcDbVisualStyle
  2
GouraudWithEdges
 70
     3
177
     2
291
     1
 71
     2
176
     1
 72
     2
176
     1
 73
     1
176
     1
 90
        2
176
     1
 40
0.6
176
     1
 41
30.0
176
     1
 62
     5
 63
     7
421
 16777215
176
     1
 74
     1
176
     1
 91
        0
176
     1
 64
     7
176
     1
 65
   257
176
     1
 75
     1
176
     1
175
     1
176
     1
 42
1.0
176
     1
 92
        0
176
     1
 66
   257
176
     1
 43
1.0
176
     1
 76
     1
176
     1
 77
     6
176
     1
 78
     2
176
     1
 67
     7
176
     1
 79
     5
176
     1
170
     0
176
     1
171
     0
176
     1
290
     0
176
     1
 93
       13
176
     1
 44
0.0
176
     1
173
     0
176
     1
  0
VISUALSTYLE
  5
31
102
{ACAD_REACTORS
330
2A
102
}
102
{ACAD_XDICTIONARY
360
42F
102
}
330
2A
100
AcDbVisualStyle
  2
Hidden
 70
     6
177
     2
291
     0
 71
     1
176
     1
 72
     2
176
     1
 73
     2
176
     1
 90
        0
176
     1
 40
0.6
176
     1
 41
30.0
176
     1
 62
     5
 63
     7
421
 16777215
176
     1
 74
     2
176
     1
 91
        2
176
     1
 64
     7
176
     1
 65
   257
176
     1
 75
     2
176
     1
175
     1
176
     1
 42
40.0
176
     1
 92
        0
176
     1
 66
   257
176
     1
 43
1.0
176
     1
 76
     1
176
     1
 77
     6
176
     1
 78
     2
176
     1
 67
     7
176
     1
 79
     3
176
     1
170
     0
176
     1
171
     0
176
     1
290
     0
176
     1
 93
        1
176
     1
 44
0.0
176
     1
173
     0
176
     1
  0
VISUALSTYLE
  5
3B
102
{ACAD_REACTORS
330
2A
102
}
102
{ACAD_XDICTIONARY
360
443
102
}
330
2A
100
AcDbVisualStyle
  2
JitterOff
 70
    20
177
     2
291
     1
 71
     2
176
     0
 72
     2
176
     0
 73
     0
176
     0
 90
        0
176
     0
 40
0.6
176
     0
 41
30.0
176
     0
 62
     5
 63
     7
421
 16777215
176
     0
 74
     1
176
     0
 91
        4
176
     0
 64
     7
176
     0
 65
   257
176
     0
 75
     1
176
     0
175
     1
176
     0
 42
1.0
176
     0
 92
       10
176
     2
 66
     7
176
     0
 43
1.0
176
     0
 76
     1
176
     0
 77
     6
176
     0
 78
     2
176
     0
 67
     7
176
     0
 79
     5
176
     0
170
     0
176
     0
171
     0
176
     0
290
     0
176
     0
 93
        1
176
     0
 44
0.0
176
     0
173
     0
176
     0
  0
VISUALSTYLE
  5
38
102
{ACAD_REACTORS
330
2A
102
}
102
{ACAD_XDICTIONARY
360
43D
102
}
330
2A
100
AcDbVisualStyle
  2
Linepattern
 70
    14
177
     2
291
     1
 71
     2
176
     1
 72
     2
176
     1
 73
     0
176
     1
 90
        0
176
     1
 40
0.6
176
     1
 41
30.0
176
     1
 62
     5
 63
     7
421
 16777215
176
     1
 74
     1
176
     1
 91
        4
176
     1
 64
     7
176
     1
 65
   257
176
     1
 75
     7
176
     1
175
     7
176
     1
 42
1.0
176
     1
 92
        8
176
     1
 66
     7
176
     1
 43
1.0
176
     1
 76
     1
176
     1
 77
     6
176
     1
 78
     2
176
     1
 67
     7
176
     1
 79
     5
176
     1
170
     0
176
     1
171
     0
176
     1
290
     0
176
     1
 93
        1
176
     1
 44
0.0
176
     1
173
     0
176
     1
  0
VISUALSTYLE
  5
3C
102
{ACAD_REACTORS
330
2A
102
}
102
{ACAD_XDICTIONARY
360
445
102
}
330
2A
100
AcDbVisualStyle
  2
OverhangOff
 70
    21
177
     2
291
     1
 71
     2
176
     0
 72
     2
176
     0
 73
     0
176
     0
 90
        0
176
     0
 40
0.6
176
     0
 41
30.0
176
     0
 62
     5
 63
     7
421
 16777215
176
     0
 74
     1
176
     0
 91
        4
176
     0
 64
     7
176
     0
 65
   257
176
     0
 75
     1
176
     0
175
     1
176
     0
 42
1.0
176
     0
 92
        9
176
     2
 66
     7
176
     0
 43
1.0
176
     0
 76
     1
176
     0
 77
     6
176
     0
 78
     2
176
     0
 67
     7
176
     0
 79
     5
176
     0
170
     0
176
     0
171
     0
176
     0
290
     0
176
     0
 93
        1
176
     0
 44
0.0
176
     0
173
     0
176
     0
  0
VISUALSTYLE
  5
33
102
{ACAD_REACTORS
330
2A
102
}
102
{ACAD_XDICTIONARY
360
433
102
}
330
2A
100
AcDbVisualStyle
  2
Realistic
 70
     8
177
     2
291
     0
 71
     2
176
     1
 72
     3
176
     1
 73
     0
176
     1
 90
        2
176
     1
 40
0.6
176
     1
 41
30.0
176
     1
 62
     5
 63
     7
421
 16777215
176
     1
 74
     0
176
     1
 91
        0
176
     1
 64
     7
176
     1
 65
   257
176
     1
 75
     1
176
     1
175
     1
176
     1
 42
1.0
176
     1
 92
        8
176
     1
 66
   257
176
     1
 43
1.0
176
     1
 76
     1
176
     1
 77
     6
176
     1
 78
     2
176
     1
 67
     7
176
     1
 79
     3
176
     1
170
     0
176
     1
171
     0
176
     1
290
     0
176
     1
 93
       13
176
     1
 44
0.0
176
     1
173
     0
176
     1
  0
VISUALSTYLE
  5
42
102
{ACAD_REACTORS
330
2A
102
}
102
{ACAD_XDICTIONARY
360
451
102
}
330
2A
100
AcDbVisualStyle
  2
Shaded
 70
    27
177
     2
291
     0
 71
     2
176
     1
 72
     2
176
     1
 73
     1
176
     1
 90
        2
176
     1
 40
0.6
176
     1
 41
30.0
176
     1
 62
     5
 63
     7
421
 16777215
176
     1
 74
     0
176
     1
 91
        4
176
     1
 64
     7
176
     1
 65
   257
176
     1
 75
     1
176
     1
175
     1
176
     1
 42
1.0
176
     1
 92
        8
176
     1
 66
   257
176
     1
 43
1.0
176
     1
 76
     1
176
     1
 77
     6
176
     1
 78
     2
176
     1
 67
     8
425
  7895160
176
     1
 79
     3
176
     1
170
     0
176
     1
171
     0
176
     1
290
     0
176
     1
 93
        5
176
     1
 44
0.0
176
     1
173
     0
176
     1
  0
VISUALSTYLE
  5
41
102
{ACAD_REACTORS
330
2A
102
}
102
{ACAD_XDICTIONARY
360
44F
102
}
330
2A
100
AcDbVisualStyle
  2
Shaded with edges
 70
    26
177
     2
291
     0
 71
     2
176
     1
 72
     2
176
     1
 73
     1
176
     1
 90
        2
176
     1
 40
0.6
176
     1
 41
30.0
176
     1
 62
     5
 63
     7
421
 16777215
176
     1
 74
     1
176
     1
 91
       10
176
     1
 64
     7
176
     1
 65
   257
176
     1
 75
     2
176
     1
175
     1
176
     1
 42
1.0
176
     1
 92
        8
176
     1
 66
   257
176
     1
 43
1.0
176
     1
 76
     1
176
     1
 77
     6
176
     1
 78
     2
176
     1
 67
     7
176
     1
 79
     3
176
     1
170
     0
176
     1
171
     0
176
     1
290
     0
176
     1
 93
        5
176
     1
 44
0.0
176
     1
173
     0
176
     1
  0
VISUALSTYLE
  5
3E
102
{ACAD_REACTORS
330
2A
102
}
102
{ACAD_XDICTIONARY
360
449
102
}
330
2A
100
AcDbVisualStyle
  2
Shades of Gray
 70
    23
177
     2
291
     0
 71
     2
176
     1
 72
     2
176
     1
 73
     3
176
     1
 90
        0
176
     1
 40
0.6
176
     1
 41
30.0
176
     1
 62
     5
 63
     7
421
 16777215
176
     1
 74
     2
176
     1
 91
        2
176
     1
 64
     7
176
     1
 65
     7
176
     1
 75
     1
176
     1
175
     1
176
     1
 42
40.0
176
     1
 92
        8
176
     1
 66
     7
176
     1
 43
1.0
176
     1
 76
     1
176
     1
 77
     6
176
     1
 78
     2
176
     1
 67
     7
176
     1
 79
     3
176
     1
170
     0
176
     1
171
     0
176
     1
290
     0
176
     1
 93
        1
176
     1
 44
0.0
176
     1
173
     0
176
     1
  0
VISUALSTYLE
  5
3F
102
{ACAD_REACTORS
330
2A
102
}
102
{ACAD_XDICTIONARY
360
44B
102
}
330
2A
100
AcDbVisualStyle
  2
Sketchy
 70
    24
177
     2
291
     0
 71
     1
176
     1
 72
     2
176
     1
 73
     2
176
     1
 90
        0
176
     1
 40
0.6
176
     1
 41
30.0
176
     1
 62
     5
 63
     7
421
 16777215
176
     1
 74
     2
176
     1
 91
        2
176
     1
 64
     7
176
     1
 65
     7
176
     1
 75
     1
176
     1
175
     1
176
     1
 42
40.0
176
     1
 92
       11
176
     1
 66
     7
176
     1
 43
1.0
176
     1
 76
     1
176
     1
 77
     6
176
     1
 78
     2
176
     1
 67
     7
176
     1
 79
     6
176
     1
170
     0
176
     1
171
     0
176
     1
290
     0
176
     1
 93
        1
176
     1
 44
0.0
176
     1
173
     0
176
     1
  0
VISUALSTYLE
  5
37
102
{ACAD_REACTORS
330
2A
102
}
102
{ACAD_XDICTIONARY
360
43B
102
}
330
2A
100
AcDbVisualStyle
  2
Thicken
 70
    13
177
     2
291
     1
 71
     2
176
     1
 72
     2
176
     1
 73
     0
176
     1
 90
        0
176
     1
 40
0.6
176
     1
 41
30.0
176
     1
 62
     5
 63
     7
421
 16777215
176
     1
 74
     1
176
     1
 91
        4
176
     1
 64
     7
176
     1
 65
   257
176
     1
 75
     1
176
     1
175
     1
176
     1
 42
1.0
176
     1
 92
       12
176
     1
 66
     7
176
     1
 43
1.0
176
     1
 76
     1
176
     1
 77
     6
176
     1
 78
     2
176
     1
 67
     7
176
     1
 79
     5
176
     1
170
     0
176
     1
171
     0
176
     1
290
     0
176
     1
 93
        1
176
     1
 44
0.0
176
     1
173
     0
176
     1
  0
VISUALSTYLE
  5
30
102
{ACAD_REACTORS
330
2A
102
}
102
{ACAD_XDICTIONARY
360
42D
102
}
330
2A
100
AcDbVisualStyle
  2
Wireframe
 70
     5
177
     2
291
     0
 71
     0
176
     1
 72
     2
176
     1
 73
     0
176
     1
 90
        0
176
     1
 40
0.6
176
     1
 41
30.0
176
     1
 62
     5
 63
     7
421
 16777215
176
     1
 74
     1
176
     1
 91
        4
176
     1
 64
     7
176
     1
 65
   257
176
     1
 75
     1
176
     1
175
     1
176
     1
 42
1.0
176
     1
 92
        0
176
     1
 66
   257
176
     1
 43
1.0
176
     1
 76
     1
176
     1
 77
     6
176
     1
 78
     2
176
     1
 67
     7
176
     1
 79
     3
176
     1
170
     0
176
     1
171
     0
176
     1
290
     0
176
     1
 93
        1
176
     1
 44
0.0
176
     1
173
     0
176
     1
  0
VISUALSTYLE
  5
40
102
{ACAD_REACTORS
330
2A
102
}
102
{ACAD_XDICTIONARY
360
44D
102
}
330
2A
100
AcDbVisualStyle
  2
X-Ray
 70
    25
177
     2
291
     0
 71
     2
176
     1
 72
     2
176
     1
 73
     1
176
     1
 90
        1
176
     1
 40
0.5
176
     1
 41
30.0
176
     1
 62
     5
 63
     7
421
 16777215
176
     1
 74
     1
176
     1
 91
        0
176
     1
 64
     7
176
     1
 65
   257
176
     1
 75
     1
176
     1
175
     1
176
     1
 42
1.0
176
     1
 92
        8
176
     1
 66
     7
176
     1
 43
1.0
176
     1
 76
     1
176
     1
 77
     6
176
     1
 78
     2
176
     1
 67
     7
176
     1
 79
     3
176
     1
170
     0
176
     1
171
     0
176
     1
290
     0
176
     1
 93
       13
176
     1
 44
0.0
176
     1
173
     0
176
     1
  0
DICTIONARYVAR
  5
422
102
{ACAD_REACTORS
330
421
102
}
330
421
100
DictionaryVariables
280
     0
  1
1:1
  0
DICTIONARYVAR
  5
457
102
{ACAD_REACTORS
330
421
102
}
330
421
100
DictionaryVariables
280
     0
  1
Standard
  0
DICTIONARYVAR
  5
456
102
{ACAD_REACTORS
330
421
102
}
330
421
100
DictionaryVariables
280
     0
  1
Standard
  0
DICTIONARY
  5
453
330
6A
100
AcDbDictionary
280
     1
281
     1
  3
ACAD_ROUNDTRIP_2008_TABLESTYLE_CELLSTYLEMAP
360
454
  0
DICTIONARY
  5
42B
330
2F
100
AcDbDictionary
280
     1
281
     1
  3
ACAD_XREC_ROUNDTRIP
360
42C
  0
DICTIONARY
  5
431
330
32
100
AcDbDictionary
280
     1
281
     1
  3
ACAD_XREC_ROUNDTRIP
360
432
  0
DICTIONARY
  5
439
330
36
100
AcDbDictionary
280
     1
281
     1
  3
ACAD_XREC_ROUNDTRIP
360
43A
  0
DICTIONARY
  5
441
330
3A
100
AcDbDictionary
280
     1
281
     1
  3
ACAD_XREC_ROUNDTRIP
360
442
  0
DICTIONARY
  5
435
330
34
100
AcDbDictionary
280
     1
281
     1
  3
ACAD_XREC_ROUNDTRIP
360
436
  0
DICTIONARY
  5
437
330
35
100
AcDbDictionary
280
     1
281
     1
  3
ACAD_XREC_ROUNDTRIP
360
438
  0
DICTIONARY
  5
447
330
3D
100
AcDbDictionary
280
     1
281
     1
  3
ACAD_XREC_ROUNDTRIP
360
448
  0
DICTIONARY
  5
43F
330
39
100
AcDbDictionary
280
     1
281
     1
  3
ACAD_XREC_ROUNDTRIP
360
440
  0
DICTIONARY
  5
423
330
2B
100
AcDbDictionary
280
     1
281
     1
  3
ACAD_XREC_ROUNDTRIP
360
424
  0
DICTIONARY
  5
425
330
2C
100
AcDbDictionary
280
     1
281
     1
  3
ACAD_XREC_ROUNDTRIP
360
426
  0
DICTIONARY
  5
427
330
2D
100
AcDbDictionary
280
     1
281
     1
  3
ACAD_XREC_ROUNDTRIP
360
428
  0
DICTIONARY
  5
429
330
2E
100
AcDbDictionary
280
     1
281
     1
  3
ACAD_XREC_ROUNDTRIP
360
42A
  0
DICTIONARY
  5
42F
330
31
100
AcDbDictionary
280
     1
281
     1
  3
ACAD_XREC_ROUNDTRIP
360
430
  0
DICTIONARY
  5
443
330
3B
100
AcDbDictionary
280
     1
281
     1
  3
ACAD_XREC_ROUNDTRIP
360
444
  0
DICTIONARY
  5
43D
330
38
100
AcDbDictionary
280
     1
281
     1
  3
ACAD_XREC_ROUNDTRIP
360
43E
  0
DICTIONARY
  5
445
330
3C
100
AcDbDictionary
280
     1
281
     1
  3
ACAD_XREC_ROUNDTRIP
360
446
  0
DICTIONARY
  5
433
330
33
100
AcDbDictionary
280
     1
281
     1
  3
ACAD_XREC_ROUNDTRIP
360
434
  0
DICTIONARY
  5
451
330
42
100
AcDbDictionary
280
     1
281
     1
  3
ACAD_XREC_ROUNDTRIP
360
452
  0
DICTIONARY
  5
44F
330
41
100
AcDbDictionary
280
     1
281
     1
  3
ACAD_XREC_ROUNDTRIP
360
450
  0
DICTIONARY
  5
449
330
3E
100
AcDbDictionary
280
     1
281
     1
  3
ACAD_XREC_ROUNDTRIP
360
44A
  0
DICTIONARY
  5
44B
330
3F
100
AcDbDictionary
280
     1
281
     1
  3
ACAD_XREC_ROUNDTRIP
360
44C
  0
DICTIONARY
  5
43B
330
37
100
AcDbDictionary
280
     1
281
     1
  3
ACAD_XREC_ROUNDTRIP
360
43C
  0
DICTIONARY
  5
42D
330
30
100
AcDbDictionary
280
     1
281
     1
  3
ACAD_XREC_ROUNDTRIP
360
42E
  0
DICTIONARY
  5
44D
330
40
100
AcDbDictionary
280
     1
281
     1
  3
ACAD_XREC_ROUNDTRIP
360
44E
  0
CELLSTYLEMAP
  5
454
102
{ACAD_REACTORS
330
453
102
}
330
453
100
AcDbCellStyleMap
 90
        3
300
CELLSTYLE
  1
TABLEFORMAT_BEGIN
 90
        5
170
     1
 91
        0
 92
    32768
 62
   257
 93
        1
300
CONTENTFORMAT
  1
CONTENTFORMAT_BEGIN
 90
        0
 91
        0
 92
        4
 93
        0
300

 40
0.0
140
1.0
 94
        5
 62
     0
340
11
144
6.0
309
CONTENTFORMAT_END
171
     1
301
MARGIN
  1
CELLMARGIN_BEGIN
 40
1.5
 40
1.5
 40
1.5
 40
1.5
 40
1.5
 40
1.5
309
CELLMARGIN_END
 94
        6
 95
        1
302
GRIDFORMAT
  1
GRIDFORMAT_BEGIN
 90
        0
 91
        1
 62
     0
 92
       -2
340
14
 93
        0
 40
0.045
309
GRIDFORMAT_END
 95
        2
302
GRIDFORMAT
  1
GRIDFORMAT_BEGIN
 90
        0
 91
        1
 62
     0
 92
       -2
340
14
 93
        0
 40
0.045
309
GRIDFORMAT_END
 95
        4
302
GRIDFORMAT
  1
GRIDFORMAT_BEGIN
 90
        0
 91
        1
 62
     0
 92
       -2
340
14
 93
        0
 40
0.045
309
GRIDFORMAT_END
 95
        8
302
GRIDFORMAT
  1
GRIDFORMAT_BEGIN
 90
        0
 91
        1
 62
     0
 92
       -2
340
14
 93
        0
 40
0.045
309
GRIDFORMAT_END
 95
       16
302
GRIDFORMAT
  1
GRIDFORMAT_BEGIN
 90
        0
 91
        1
 62
     0
 92
       -2
340
14
 93
        0
 40
0.045
309
GRIDFORMAT_END
 95
       32
302
GRIDFORMAT
  1
GRIDFORMAT_BEGIN
 90
        0
 91
        1
 62
     0
 92
       -2
340
14
 93
        0
 40
0.045
309
GRIDFORMAT_END
309
TABLEFORMAT_END
  1
CELLSTYLE_BEGIN
 90
        1
 91
        1
300
_TITLE
309
CELLSTYLE_END
300
CELLSTYLE
  1
TABLEFORMAT_BEGIN
 90
        5
170
     1
 91
        0
 92
        0
 62
   257
 93
        1
300
CONTENTFORMAT
  1
CONTENTFORMAT_BEGIN
 90
        0
 91
        0
 92
        4
 93
        0
300

 40
0.0
140
1.0
 94
        5
 62
     0
340
11
144
4.5
309
CONTENTFORMAT_END
171
     1
301
MARGIN
  1
CELLMARGIN_BEGIN
 40
1.5
 40
1.5
 40
1.5
 40
1.5
 40
1.5
 40
1.5
309
CELLMARGIN_END
 94
        6
 95
        1
302
GRIDFORMAT
  1
GRIDFORMAT_BEGIN
 90
        0
 91
        1
 62
     0
 92
       -2
340
14
 93
        0
 40
0.045
309
GRIDFORMAT_END
 95
        2
302
GRIDFORMAT
  1
GRIDFORMAT_BEGIN
 90
        0
 91
        1
 62
     0
 92
       -2
340
14
 93
        0
 40
0.045
309
GRIDFORMAT_END
 95
        4
302
GRIDFORMAT
  1
GRIDFORMAT_BEGIN
 90
        0
 91
        1
 62
     0
 92
       -2
340
14
 93
        0
 40
0.045
309
GRIDFORMAT_END
 95
        8
302
GRIDFORMAT
  1
GRIDFORMAT_BEGIN
 90
        0
 91
        1
 62
     0
 92
       -2
340
14
 93
        0
 40
0.045
309
GRIDFORMAT_END
 95
       16
302
GRIDFORMAT
  1
GRIDFORMAT_BEGIN
 90
        0
 91
        1
 62
     0
 92
       -2
340
14
 93
        0
 40
0.045
309
GRIDFORMAT_END
 95
       32
302
GRIDFORMAT
  1
GRIDFORMAT_BEGIN
 90
        0
 91
        1
 62
     0
 92
       -2
340
14
 93
        0
 40
0.045
309
GRIDFORMAT_END
309
TABLEFORMAT_END
  1
CELLSTYLE_BEGIN
 90
        2
 91
        1
300
_HEADER
309
CELLSTYLE_END
300
CELLSTYLE
  1
TABLEFORMAT_BEGIN
 90
        5
170
     1
 91
        0
 92
        0
 62
   257
 93
        1
300
CONTENTFORMAT
  1
CONTENTFORMAT_BEGIN
 90
        0
 91
        0
 92
        4
 93
        0
300

 40
0.0
140
1.0
 94
        2
 62
     0
340
11
144
4.5
309
CONTENTFORMAT_END
171
     1
301
MARGIN
  1
CELLMARGIN_BEGIN
 40
1.5
 40
1.5
 40
1.5
 40
1.5
 40
1.5
 40
1.5
309
CELLMARGIN_END
 94
        6
 95
        1
302
GRIDFORMAT
  1
GRIDFORMAT_BEGIN
 90
        0
 91
        1
 62
     0
 92
       -2
340
14
 93
        0
 40
0.045
309
GRIDFORMAT_END
 95
        2
302
GRIDFORMAT
  1
GRIDFORMAT_BEGIN
 90
        0
 91
        1
 62
     0
 92
       -2
340
14
 93
        0
 40
0.045
309
GRIDFORMAT_END
 95
        4
302
GRIDFORMAT
  1
GRIDFORMAT_BEGIN
 90
        0
 91
        1
 62
     0
 92
       -2
340
14
 93
        0
 40
0.045
309
GRIDFORMAT_END
 95
        8
302
GRIDFORMAT
  1
GRIDFORMAT_BEGIN
 90
        0
 91
        1
 62
     0
 92
       -2
340
14
 93
        0
 40
0.045
309
GRIDFORMAT_END
 95
       16
302
GRIDFORMAT
  1
GRIDFORMAT_BEGIN
 90
        0
 91
        1
 62
     0
 92
       -2
340
14
 93
        0
 40
0.045
309
GRIDFORMAT_END
 95
       32
302
GRIDFORMAT
  1
GRIDFORMAT_BEGIN
 90
        0
 91
        1
 62
     0
 92
       -2
340
14
 93
        0
 40
0.045
309
GRIDFORMAT_END
309
TABLEFORMAT_END
  1
CELLSTYLE_BEGIN
 90
        3
 91
        2
300
_DATA
309
CELLSTYLE_END
  0
XRECORD
  5
42C
102
{ACAD_REACTORS
330
42B
102
}
330
42B
100
AcDbXrecord
280
     1
102
RTVSPost2010Prop28
280
     1
102
RTVSPost2010PropOp28
 70
     1
102
RTVSPost2010Prop29
280
     1
102
RTVSPost2010PropOp29
 70
     1
102
RTVSPost2010Prop30
280
     0
102
RTVSPost2010PropOp30
 70
     1
102
RTVSPost2010Prop31
280
     0
102
RTVSPost2010PropOp31
 70
     1
102
RTVSPost2010Prop32
280
     0
102
RTVSPost2010PropOp32
 70
     1
102
RTVSPost2010Prop33
280
     0
102
RTVSPost2010PropOp33
 70
     1
102
RTVSPost2010Prop34
280
     0
102
RTVSPost2010PropOp34
 70
     1
102
RTVSPost2010Prop35
280
     0
102
RTVSPost2010PropOp35
 70
     1
102
RTVSPost2010Prop36
280
     0
102
RTVSPost2010PropOp36
 70
     1
102
RTVSPost2010Prop37
 90
       50
102
RTVSPost2010PropOp37
 70
     1
102
RTVSPost2010Prop38
140
0.0
102
RTVSPost2010PropOp38
 70
     1
102
RTVSPost2010Prop39
140
1.0
102
RTVSPost2010PropOp39
 70
     1
102
RTVSPost2010Prop40
 90
        0
102
RTVSPost2010PropOp40
 70
     1
102
RTVSPost2010Prop41ColorIndex
 90
       18
102
RTVSPost2010Prop41ColorRGB
 90
        0
102
RTVSPost2010PropOp41
 70
     1
102
RTVSPost2010Prop42
 90
       50
102
RTVSPost2010PropOp42
 70
     1
102
RTVSPost2010Prop43
 90
        3
102
RTVSPost2010PropOp43
 70
     1
102
RTVSPost2010Prop44ColorIndex
 90
        5
102
RTVSPost2010Prop44ColorRGB
 90
      255
102
RTVSPost2010PropOp44
 70
     1
102
RTVSPost2010Prop45
280
     0
102
RTVSPost2010PropOp45
 70
     1
102
RTVSPost2010Prop46
 90
       50
102
RTVSPost2010PropOp46
 70
     1
102
RTVSPost2010Prop47
 90
       50
102
RTVSPost2010PropOp47
 70
     1
102
RTVSPost2010Prop48
 90
       50
102
RTVSPost2010PropOp48
 70
     1
102
RTVSPost2010Prop49
280
     0
102
RTVSPost2010PropOp49
 70
     1
102
RTVSPost2010Prop50
 90
       50
102
RTVSPost2010PropOp50
 70
     1
102
RTVSPost2010Prop51ColorIndex
 90
      256
102
RTVSPost2010Prop51ColorRGB
 90
-16777216
102
RTVSPost2010PropOp51
 70
     0
102
RTVSPost2010Prop52
140
1.0
102
RTVSPost2010PropOp52
 70
     0
102
RTVSPost2010Prop53
 90
        2
102
RTVSPost2010PropOp53
 70
     1
102
RTVSPost2010Prop54
  1
strokes_ogs.tif
102
RTVSPost2010PropOp54
 70
     1
102
RTVSPost2010Prop55
280
     0
102
RTVSPost2010PropOp55
 70
     1
102
RTVSPost2010Prop56
140
1.0
102
RTVSPost2010PropOp56
 70
     1
102
RTVSPost2010Prop57
140
1.0
102
RTVSPost2010PropOp57
 70
     1
  0
XRECORD
  5
432
102
{ACAD_REACTORS
330
431
102
}
330
431
100
AcDbXrecord
280
     1
102
RTVSPost2010Prop28
280
     0
102
RTVSPost2010PropOp28
 70
     1
102
RTVSPost2010Prop29
280
     1
102
RTVSPost2010PropOp29
 70
     1
102
RTVSPost2010Prop30
280
     1
102
RTVSPost2010PropOp30
 70
     1
102
RTVSPost2010Prop31
280
     0
102
RTVSPost2010PropOp31
 70
     1
102
RTVSPost2010Prop32
280
     0
102
RTVSPost2010PropOp32
 70
     1
102
RTVSPost2010Prop33
280
     0
102
RTVSPost2010PropOp33
 70
     1
102
RTVSPost2010Prop34
280
     0
102
RTVSPost2010PropOp34
 70
     1
102
RTVSPost2010Prop35
280
     0
102
RTVSPost2010PropOp35
 70
     1
102
RTVSPost2010Prop36
280
     0
102
RTVSPost2010PropOp36
 70
     1
102
RTVSPost2010Prop37
 90
       50
102
RTVSPost2010PropOp37
 70
     1
102
RTVSPost2010Prop38
140
0.0
102
RTVSPost2010PropOp38
 70
     1
102
RTVSPost2010Prop39
140
1.0
102
RTVSPost2010PropOp39
 70
     1
102
RTVSPost2010Prop40
 90
        0
102
RTVSPost2010PropOp40
 70
     1
102
RTVSPost2010Prop41ColorIndex
 90
       18
102
RTVSPost2010Prop41ColorRGB
 90
        0
102
RTVSPost2010PropOp41
 70
     1
102
RTVSPost2010Prop42
 90
       50
102
RTVSPost2010PropOp42
 70
     1
102
RTVSPost2010Prop43
 90
        3
102
RTVSPost2010PropOp43
 70
     1
102
RTVSPost2010Prop44ColorIndex
 90
        5
102
RTVSPost2010Prop44ColorRGB
 90
      255
102
RTVSPost2010PropOp44
 70
     1
102
RTVSPost2010Prop45
280
     0
102
RTVSPost2010PropOp45
 70
     1
102
RTVSPost2010Prop46
 90
       50
102
RTVSPost2010PropOp46
 70
     1
102
RTVSPost2010Prop47
 90
       50
102
RTVSPost2010PropOp47
 70
     1
102
RTVSPost2010Prop48
 90
       50
102
RTVSPost2010PropOp48
 70
     1
102
RTVSPost2010Prop49
280
     0
102
RTVSPost2010PropOp49
 70
     1
102
RTVSPost2010Prop50
 90
       50
102
RTVSPost2010PropOp50
 70
     1
102
RTVSPost2010Prop51ColorIndex
 90
      256
102
RTVSPost2010Prop51ColorRGB
 90
-16777216
102
RTVSPost2010PropOp51
 70
     0
102
RTVSPost2010Prop52
140
1.0
102
RTVSPost2010PropOp52
 70
     0
102
RTVSPost2010Prop53
 90
        2
102
RTVSPost2010PropOp53
 70
     1
102
RTVSPost2010Prop54
  1
strokes_ogs.tif
102
RTVSPost2010PropOp54
 70
     1
102
RTVSPost2010Prop55
280
     0
102
RTVSPost2010PropOp55
 70
     1
102
RTVSPost2010Prop56
140
1.0
102
RTVSPost2010PropOp56
 70
     1
102
RTVSPost2010Prop57
140
1.0
102
RTVSPost2010PropOp57
 70
     1
  0
XRECORD
  5
43A
102
{ACAD_REACTORS
330
439
102
}
330
439
100
AcDbXrecord
280
     1
102
RTVSPost2010Prop28
280
     0
102
RTVSPost2010PropOp28
 70
     1
102
RTVSPost2010Prop29
280
     1
102
RTVSPost2010PropOp29
 70
     1
102
RTVSPost2010Prop30
280
     1
102
RTVSPost2010PropOp30
 70
     1
102
RTVSPost2010Prop31
280
     0
102
RTVSPost2010PropOp31
 70
     1
102
RTVSPost2010Prop32
280
     0
102
RTVSPost2010PropOp32
 70
     1
102
RTVSPost2010Prop33
280
     0
102
RTVSPost2010PropOp33
 70
     1
102
RTVSPost2010Prop34
280
     0
102
RTVSPost2010PropOp34
 70
     1
102
RTVSPost2010Prop35
280
     0
102
RTVSPost2010PropOp35
 70
     1
102
RTVSPost2010Prop36
280
     0
102
RTVSPost2010PropOp36
 70
     1
102
RTVSPost2010Prop37
 90
       50
102
RTVSPost2010PropOp37
 70
     1
102
RTVSPost2010Prop38
140
0.0
102
RTVSPost2010PropOp38
 70
     1
102
RTVSPost2010Prop39
140
1.0
102
RTVSPost2010PropOp39
 70
     1
102
RTVSPost2010Prop40
 90
        0
102
RTVSPost2010PropOp40
 70
     1
102
RTVSPost2010Prop41ColorIndex
 90
       18
102
RTVSPost2010Prop41ColorRGB
 90
        0
102
RTVSPost2010PropOp41
 70
     1
102
RTVSPost2010Prop42
 90
       50
102
RTVSPost2010PropOp42
 70
     1
102
RTVSPost2010Prop43
 90
        3
102
RTVSPost2010PropOp43
 70
     1
102
RTVSPost2010Prop44ColorIndex
 90
        5
102
RTVSPost2010Prop44ColorRGB
 90
      255
102
RTVSPost2010PropOp44
 70
     1
102
RTVSPost2010Prop45
280
     0
102
RTVSPost2010PropOp45
 70
     1
102
RTVSPost2010Prop46
 90
       50
102
RTVSPost2010PropOp46
 70
     1
102
RTVSPost2010Prop47
 90
       50
102
RTVSPost2010PropOp47
 70
     1
102
RTVSPost2010Prop48
 90
       50
102
RTVSPost2010PropOp48
 70
     1
102
RTVSPost2010Prop49
280
     0
102
RTVSPost2010PropOp49
 70
     1
102
RTVSPost2010Prop50
 90
       50
102
RTVSPost2010PropOp50
 70
     1
102
RTVSPost2010Prop51ColorIndex
 90
      256
102
RTVSPost2010Prop51ColorRGB
 90
-16777216
102
RTVSPost2010PropOp51
 70
     0
102
RTVSPost2010Prop52
140
1.0
102
RTVSPost2010PropOp52
 70
     0
102
RTVSPost2010Prop53
 90
        2
102
RTVSPost2010PropOp53
 70
     1
102
RTVSPost2010Prop54
  1
strokes_ogs.tif
102
RTVSPost2010PropOp54
 70
     1
102
RTVSPost2010Prop55
280
     0
102
RTVSPost2010PropOp55
 70
     1
102
RTVSPost2010Prop56
140
1.0
102
RTVSPost2010PropOp56
 70
     1
102
RTVSPost2010Prop57
140
1.0
102
RTVSPost2010PropOp57
 70
     1
  0
XRECORD
  5
442
102
{ACAD_REACTORS
330
441
102
}
330
441
100
AcDbXrecord
280
     1
102
RTVSPost2010Prop28
280
     0
102
RTVSPost2010PropOp28
 70
     1
102
RTVSPost2010Prop29
280
     1
102
RTVSPost2010PropOp29
 70
     1
102
RTVSPost2010Prop30
280
     1
102
RTVSPost2010PropOp30
 70
     1
102
RTVSPost2010Prop31
280
     0
102
RTVSPost2010PropOp31
 70
     1
102
RTVSPost2010Prop32
280
     0
102
RTVSPost2010PropOp32
 70
     1
102
RTVSPost2010Prop33
280
     0
102
RTVSPost2010PropOp33
 70
     1
102
RTVSPost2010Prop34
280
     0
102
RTVSPost2010PropOp34
 70
     1
102
RTVSPost2010Prop35
280
     0
102
RTVSPost2010PropOp35
 70
     1
102
RTVSPost2010Prop36
280
     0
102
RTVSPost2010PropOp36
 70
     1
102
RTVSPost2010Prop37
 90
       50
102
RTVSPost2010PropOp37
 70
     1
102
RTVSPost2010Prop38
140
0.0
102
RTVSPost2010PropOp38
 70
     1
102
RTVSPost2010Prop39
140
1.0
102
RTVSPost2010PropOp39
 70
     1
102
RTVSPost2010Prop40
 90
        0
102
RTVSPost2010PropOp40
 70
     1
102
RTVSPost2010Prop41ColorIndex
 90
       18
102
RTVSPost2010Prop41ColorRGB
 90
        0
102
RTVSPost2010PropOp41
 70
     1
102
RTVSPost2010Prop42
 90
       50
102
RTVSPost2010PropOp42
 70
     1
102
RTVSPost2010Prop43
 90
        3
102
RTVSPost2010PropOp43
 70
     1
102
RTVSPost2010Prop44ColorIndex
 90
        5
102
RTVSPost2010Prop44ColorRGB
 90
      255
102
RTVSPost2010PropOp44
 70
     1
102
RTVSPost2010Prop45
280
     0
102
RTVSPost2010PropOp45
 70
     1
102
RTVSPost2010Prop46
 90
       50
102
RTVSPost2010PropOp46
 70
     1
102
RTVSPost2010Prop47
 90
       50
102
RTVSPost2010PropOp47
 70
     1
102
RTVSPost2010Prop48
 90
       50
102
RTVSPost2010PropOp48
 70
     1
102
RTVSPost2010Prop49
280
     0
102
RTVSPost2010PropOp49
 70
     1
102
RTVSPost2010Prop50
 90
       50
102
RTVSPost2010PropOp50
 70
     1
102
RTVSPost2010Prop51ColorIndex
 90
      256
102
RTVSPost2010Prop51ColorRGB
 90
-16777216
102
RTVSPost2010PropOp51
 70
     0
102
RTVSPost2010Prop52
140
1.0
102
RTVSPost2010PropOp52
 70
     0
102
RTVSPost2010Prop53
 90
        2
102
RTVSPost2010PropOp53
 70
     1
102
RTVSPost2010Prop54
  1
strokes_ogs.tif
102
RTVSPost2010PropOp54
 70
     1
102
RTVSPost2010Prop55
280
     0
102
RTVSPost2010PropOp55
 70
     1
102
RTVSPost2010Prop56
140
1.0
102
RTVSPost2010PropOp56
 70
     1
102
RTVSPost2010Prop57
140
1.0
102
RTVSPost2010PropOp57
 70
     1
  0
XRECORD
  5
436
102
{ACAD_REACTORS
330
435
102
}
330
435
100
AcDbXrecord
280
     1
102
RTVSPost2010Prop28
280
     0
102
RTVSPost2010PropOp28
 70
     1
102
RTVSPost2010Prop29
280
     1
102
RTVSPost2010PropOp29
 70
     1
102
RTVSPost2010Prop30
280
     1
102
RTVSPost2010PropOp30
 70
     1
102
RTVSPost2010Prop31
280
     0
102
RTVSPost2010PropOp31
 70
     1
102
RTVSPost2010Prop32
280
     0
102
RTVSPost2010PropOp32
 70
     1
102
RTVSPost2010Prop33
280
     0
102
RTVSPost2010PropOp33
 70
     1
102
RTVSPost2010Prop34
280
     0
102
RTVSPost2010PropOp34
 70
     1
102
RTVSPost2010Prop35
280
     0
102
RTVSPost2010PropOp35
 70
     1
102
RTVSPost2010Prop36
280
     0
102
RTVSPost2010PropOp36
 70
     1
102
RTVSPost2010Prop37
 90
       50
102
RTVSPost2010PropOp37
 70
     1
102
RTVSPost2010Prop38
140
0.0
102
RTVSPost2010PropOp38
 70
     1
102
RTVSPost2010Prop39
140
1.0
102
RTVSPost2010PropOp39
 70
     1
102
RTVSPost2010Prop40
 90
        0
102
RTVSPost2010PropOp40
 70
     1
102
RTVSPost2010Prop41ColorIndex
 90
       18
102
RTVSPost2010Prop41ColorRGB
 90
        0
102
RTVSPost2010PropOp41
 70
     1
102
RTVSPost2010Prop42
 90
       50
102
RTVSPost2010PropOp42
 70
     1
102
RTVSPost2010Prop43
 90
        3
102
RTVSPost2010PropOp43
 70
     1
102
RTVSPost2010Prop44ColorIndex
 90
        5
102
RTVSPost2010Prop44ColorRGB
 90
      255
102
RTVSPost2010PropOp44
 70
     1
102
RTVSPost2010Prop45
280
     0
102
RTVSPost2010PropOp45
 70
     1
102
RTVSPost2010Prop46
 90
       50
102
RTVSPost2010PropOp46
 70
     1
102
RTVSPost2010Prop47
 90
       50
102
RTVSPost2010PropOp47
 70
     1
102
RTVSPost2010Prop48
 90
       50
102
RTVSPost2010PropOp48
 70
     1
102
RTVSPost2010Prop49
280
     0
102
RTVSPost2010PropOp49
 70
     1
102
RTVSPost2010Prop50
 90
       50
102
RTVSPost2010PropOp50
 70
     1
102
RTVSPost2010Prop51ColorIndex
 90
      256
102
RTVSPost2010Prop51ColorRGB
 90
-16777216
102
RTVSPost2010PropOp51
 70
     0
102
RTVSPost2010Prop52
140
1.0
102
RTVSPost2010PropOp52
 70
     0
102
RTVSPost2010Prop53
 90
        2
102
RTVSPost2010PropOp53
 70
     1
102
RTVSPost2010Prop54
  1
strokes_ogs.tif
102
RTVSPost2010PropOp54
 70
     1
102
RTVSPost2010Prop55
280
     0
102
RTVSPost2010PropOp55
 70
     1
102
RTVSPost2010Prop56
140
1.0
102
RTVSPost2010PropOp56
 70
     1
102
RTVSPost2010Prop57
140
1.0
102
RTVSPost2010PropOp57
 70
     1
  0
XRECORD
  5
438
102
{ACAD_REACTORS
330
437
102
}
330
437
100
AcDbXrecord
280
     1
102
RTVSPost2010Prop28
280
     0
102
RTVSPost2010PropOp28
 70
     1
102
RTVSPost2010Prop29
280
     1
102
RTVSPost2010PropOp29
 70
     1
102
RTVSPost2010Prop30
280
     1
102
RTVSPost2010PropOp30
 70
     1
102
RTVSPost2010Prop31
280
     0
102
RTVSPost2010PropOp31
 70
     1
102
RTVSPost2010Prop32
280
     0
102
RTVSPost2010PropOp32
 70
     1
102
RTVSPost2010Prop33
280
     0
102
RTVSPost2010PropOp33
 70
     1
102
RTVSPost2010Prop34
280
     0
102
RTVSPost2010PropOp34
 70
     1
102
RTVSPost2010Prop35
280
     0
102
RTVSPost2010PropOp35
 70
     1
102
RTVSPost2010Prop36
280
     0
102
RTVSPost2010PropOp36
 70
     1
102
RTVSPost2010Prop37
 90
       50
102
RTVSPost2010PropOp37
 70
     1
102
RTVSPost2010Prop38
140
0.0
102
RTVSPost2010PropOp38
 70
     1
102
RTVSPost2010Prop39
140
1.0
102
RTVSPost2010PropOp39
 70
     1
102
RTVSPost2010Prop40
 90
        0
102
RTVSPost2010PropOp40
 70
     1
102
RTVSPost2010Prop41ColorIndex
 90
       18
102
RTVSPost2010Prop41ColorRGB
 90
        0
102
RTVSPost2010PropOp41
 70
     1
102
RTVSPost2010Prop42
 90
       50
102
RTVSPost2010PropOp42
 70
     1
102
RTVSPost2010Prop43
 90
        3
102
RTVSPost2010PropOp43
 70
     1
102
RTVSPost2010Prop44ColorIndex
 90
        5
102
RTVSPost2010Prop44ColorRGB
 90
      255
102
RTVSPost2010PropOp44
 70
     1
102
RTVSPost2010Prop45
280
     0
102
RTVSPost2010PropOp45
 70
     1
102
RTVSPost2010Prop46
 90
       50
102
RTVSPost2010PropOp46
 70
     1
102
RTVSPost2010Prop47
 90
       50
102
RTVSPost2010PropOp47
 70
     1
102
RTVSPost2010Prop48
 90
       50
102
RTVSPost2010PropOp48
 70
     1
102
RTVSPost2010Prop49
280
     0
102
RTVSPost2010PropOp49
 70
     1
102
RTVSPost2010Prop50
 90
       50
102
RTVSPost2010PropOp50
 70
     1
102
RTVSPost2010Prop51ColorIndex
 90
      256
102
RTVSPost2010Prop51ColorRGB
 90
-16777216
102
RTVSPost2010PropOp51
 70
     0
102
RTVSPost2010Prop52
140
1.0
102
RTVSPost2010PropOp52
 70
     0
102
RTVSPost2010Prop53
 90
        2
102
RTVSPost2010PropOp53
 70
     1
102
RTVSPost2010Prop54
  1
strokes_ogs.tif
102
RTVSPost2010PropOp54
 70
     1
102
RTVSPost2010Prop55
280
     0
102
RTVSPost2010PropOp55
 70
     1
102
RTVSPost2010Prop56
140
1.0
102
RTVSPost2010PropOp56
 70
     1
102
RTVSPost2010Prop57
140
1.0
102
RTVSPost2010PropOp57
 70
     1
  0
XRECORD
  5
448
102
{ACAD_REACTORS
330
447
102
}
330
447
100
AcDbXrecord
280
     1
102
RTVSPost2010Prop28
280
     0
102
RTVSPost2010PropOp28
 70
     0
102
RTVSPost2010Prop29
280
     1
102
RTVSPost2010PropOp29
 70
     0
102
RTVSPost2010Prop30
280
     1
102
RTVSPost2010PropOp30
 70
     0
102
RTVSPost2010Prop31
280
     0
102
RTVSPost2010PropOp31
 70
     0
102
RTVSPost2010Prop32
280
     0
102
RTVSPost2010PropOp32
 70
     0
102
RTVSPost2010Prop33
280
     0
102
RTVSPost2010PropOp33
 70
     0
102
RTVSPost2010Prop34
280
     0
102
RTVSPost2010PropOp34
 70
     0
102
RTVSPost2010Prop35
280
     0
102
RTVSPost2010PropOp35
 70
     0
102
RTVSPost2010Prop36
280
     0
102
RTVSPost2010PropOp36
 70
     0
102
RTVSPost2010Prop37
 90
       50
102
RTVSPost2010PropOp37
 70
     0
102
RTVSPost2010Prop38
140
0.0
102
RTVSPost2010PropOp38
 70
     0
102
RTVSPost2010Prop39
140
1.0
102
RTVSPost2010PropOp39
 70
     0
102
RTVSPost2010Prop40
 90
        0
102
RTVSPost2010PropOp40
 70
     0
102
RTVSPost2010Prop41ColorIndex
 90
       18
102
RTVSPost2010Prop41ColorRGB
 90
        0
102
RTVSPost2010PropOp41
 70
     0
102
RTVSPost2010Prop42
 90
       50
102
RTVSPost2010PropOp42
 70
     0
102
RTVSPost2010Prop43
 90
        3
102
RTVSPost2010PropOp43
 70
     0
102
RTVSPost2010Prop44ColorIndex
 90
        5
102
RTVSPost2010Prop44ColorRGB
 90
      255
102
RTVSPost2010PropOp44
 70
     0
102
RTVSPost2010Prop45
280
     0
102
RTVSPost2010PropOp45
 70
     0
102
RTVSPost2010Prop46
 90
       50
102
RTVSPost2010PropOp46
 70
     0
102
RTVSPost2010Prop47
 90
       50
102
RTVSPost2010PropOp47
 70
     0
102
RTVSPost2010Prop48
 90
       50
102
RTVSPost2010PropOp48
 70
     0
102
RTVSPost2010Prop49
280
     0
102
RTVSPost2010PropOp49
 70
     0
102
RTVSPost2010Prop50
 90
       50
102
RTVSPost2010PropOp50
 70
     0
102
RTVSPost2010Prop51ColorIndex
 90
      256
102
RTVSPost2010Prop51ColorRGB
 90
-16777216
102
RTVSPost2010PropOp51
 70
     0
102
RTVSPost2010Prop52
140
1.0
102
RTVSPost2010PropOp52
 70
     0
102
RTVSPost2010Prop53
 90
        2
102
RTVSPost2010PropOp53
 70
     0
102
RTVSPost2010Prop54
  1
strokes_ogs.tif
102
RTVSPost2010PropOp54
 70
     0
102
RTVSPost2010Prop55
280
     0
102
RTVSPost2010PropOp55
 70
     0
102
RTVSPost2010Prop56
140
1.0
102
RTVSPost2010PropOp56
 70
     0
102
RTVSPost2010Prop57
140
1.0
102
RTVSPost2010PropOp57
 70
     0
  0
XRECORD
  5
440
102
{ACAD_REACTORS
330
43F
102
}
330
43F
100
AcDbXrecord
280
     1
102
RTVSPost2010Prop28
280
     0
102
RTVSPost2010PropOp28
 70
     1
102
RTVSPost2010Prop29
280
     1
102
RTVSPost2010PropOp29
 70
     1
102
RTVSPost2010Prop30
280
     1
102
RTVSPost2010PropOp30
 70
     1
102
RTVSPost2010Prop31
280
     0
102
RTVSPost2010PropOp31
 70
     1
102
RTVSPost2010Prop32
280
     0
102
RTVSPost2010PropOp32
 70
     1
102
RTVSPost2010Prop33
280
     0
102
RTVSPost2010PropOp33
 70
     1
102
RTVSPost2010Prop34
280
     0
102
RTVSPost2010PropOp34
 70
     1
102
RTVSPost2010Prop35
280
     0
102
RTVSPost2010PropOp35
 70
     1
102
RTVSPost2010Prop36
280
     0
102
RTVSPost2010PropOp36
 70
     1
102
RTVSPost2010Prop37
 90
       50
102
RTVSPost2010PropOp37
 70
     1
102
RTVSPost2010Prop38
140
0.0
102
RTVSPost2010PropOp38
 70
     1
102
RTVSPost2010Prop39
140
1.0
102
RTVSPost2010PropOp39
 70
     1
102
RTVSPost2010Prop40
 90
        0
102
RTVSPost2010PropOp40
 70
     1
102
RTVSPost2010Prop41ColorIndex
 90
       18
102
RTVSPost2010Prop41ColorRGB
 90
        0
102
RTVSPost2010PropOp41
 70
     1
102
RTVSPost2010Prop42
 90
       50
102
RTVSPost2010PropOp42
 70
     1
102
RTVSPost2010Prop43
 90
        3
102
RTVSPost2010PropOp43
 70
     1
102
RTVSPost2010Prop44ColorIndex
 90
        5
102
RTVSPost2010Prop44ColorRGB
 90
      255
102
RTVSPost2010PropOp44
 70
     1
102
RTVSPost2010Prop45
280
     0
102
RTVSPost2010PropOp45
 70
     1
102
RTVSPost2010Prop46
 90
       50
102
RTVSPost2010PropOp46
 70
     1
102
RTVSPost2010Prop47
 90
       50
102
RTVSPost2010PropOp47
 70
     1
102
RTVSPost2010Prop48
 90
       50
102
RTVSPost2010PropOp48
 70
     1
102
RTVSPost2010Prop49
280
     0
102
RTVSPost2010PropOp49
 70
     1
102
RTVSPost2010Prop50
 90
       50
102
RTVSPost2010PropOp50
 70
     1
102
RTVSPost2010Prop51ColorIndex
 90
      256
102
RTVSPost2010Prop51ColorRGB
 90
-16777216
102
RTVSPost2010PropOp51
 70
     0
102
RTVSPost2010Prop52
140
1.0
102
RTVSPost2010PropOp52
 70
     0
102
RTVSPost2010Prop53
 90
        2
102
RTVSPost2010PropOp53
 70
     1
102
RTVSPost2010Prop54
  1
strokes_ogs.tif
102
RTVSPost2010PropOp54
 70
     1
102
RTVSPost2010Prop55
280
     0
102
RTVSPost2010PropOp55
 70
     1
102
RTVSPost2010Prop56
140
1.0
102
RTVSPost2010PropOp56
 70
     1
102
RTVSPost2010Prop57
140
1.0
102
RTVSPost2010PropOp57
 70
     1
  0
XRECORD
  5
424
102
{ACAD_REACTORS
330
423
102
}
330
423
100
AcDbXrecord
280
     1
102
RTVSPost2010Prop28
280
     0
102
RTVSPost2010PropOp28
 70
     1
102
RTVSPost2010Prop29
280
     1
102
RTVSPost2010PropOp29
 70
     1
102
RTVSPost2010Prop30
280
     1
102
RTVSPost2010PropOp30
 70
     1
102
RTVSPost2010Prop31
280
     0
102
RTVSPost2010PropOp31
 70
     1
102
RTVSPost2010Prop32
280
     0
102
RTVSPost2010PropOp32
 70
     1
102
RTVSPost2010Prop33
280
     0
102
RTVSPost2010PropOp33
 70
     1
102
RTVSPost2010Prop34
280
     0
102
RTVSPost2010PropOp34
 70
     1
102
RTVSPost2010Prop35
280
     0
102
RTVSPost2010PropOp35
 70
     1
102
RTVSPost2010Prop36
280
     0
102
RTVSPost2010PropOp36
 70
     1
102
RTVSPost2010Prop37
 90
       50
102
RTVSPost2010PropOp37
 70
     1
102
RTVSPost2010Prop38
140
0.0
102
RTVSPost2010PropOp38
 70
     1
102
RTVSPost2010Prop39
140
1.0
102
RTVSPost2010PropOp39
 70
     1
102
RTVSPost2010Prop40
 90
        0
102
RTVSPost2010PropOp40
 70
     1
102
RTVSPost2010Prop41ColorIndex
 90
       18
102
RTVSPost2010Prop41ColorRGB
 90
        0
102
RTVSPost2010PropOp41
 70
     1
102
RTVSPost2010Prop42
 90
       50
102
RTVSPost2010PropOp42
 70
     1
102
RTVSPost2010Prop43
 90
        3
102
RTVSPost2010PropOp43
 70
     1
102
RTVSPost2010Prop44ColorIndex
 90
        5
102
RTVSPost2010Prop44ColorRGB
 90
      255
102
RTVSPost2010PropOp44
 70
     1
102
RTVSPost2010Prop45
280
     0
102
RTVSPost2010PropOp45
 70
     1
102
RTVSPost2010Prop46
 90
       50
102
RTVSPost2010PropOp46
 70
     1
102
RTVSPost2010Prop47
 90
       50
102
RTVSPost2010PropOp47
 70
     1
102
RTVSPost2010Prop48
 90
       50
102
RTVSPost2010PropOp48
 70
     1
102
RTVSPost2010Prop49
280
     0
102
RTVSPost2010PropOp49
 70
     1
102
RTVSPost2010Prop50
 90
       50
102
RTVSPost2010PropOp50
 70
     1
102
RTVSPost2010Prop51ColorIndex
 90
      256
102
RTVSPost2010Prop51ColorRGB
 90
-16777216
102
RTVSPost2010PropOp51
 70
     0
102
RTVSPost2010Prop52
140
1.0
102
RTVSPost2010PropOp52
 70
     0
102
RTVSPost2010Prop53
 90
        2
102
RTVSPost2010PropOp53
 70
     1
102
RTVSPost2010Prop54
  1
strokes_ogs.tif
102
RTVSPost2010PropOp54
 70
     1
102
RTVSPost2010Prop55
280
     0
102
RTVSPost2010PropOp55
 70
     1
102
RTVSPost2010Prop56
140
1.0
102
RTVSPost2010PropOp56
 70
     1
102
RTVSPost2010Prop57
140
1.0
102
RTVSPost2010PropOp57
 70
     1
  0
XRECORD
  5
426
102
{ACAD_REACTORS
330
425
102
}
330
425
100
AcDbXrecord
280
     1
102
RTVSPost2010Prop28
280
     0
102
RTVSPost2010PropOp28
 70
     1
102
RTVSPost2010Prop29
280
     1
102
RTVSPost2010PropOp29
 70
     1
102
RTVSPost2010Prop30
280
     1
102
RTVSPost2010PropOp30
 70
     1
102
RTVSPost2010Prop31
280
     0
102
RTVSPost2010PropOp31
 70
     1
102
RTVSPost2010Prop32
280
     0
102
RTVSPost2010PropOp32
 70
     1
102
RTVSPost2010Prop33
280
     0
102
RTVSPost2010PropOp33
 70
     1
102
RTVSPost2010Prop34
280
     0
102
RTVSPost2010PropOp34
 70
     1
102
RTVSPost2010Prop35
280
     0
102
RTVSPost2010PropOp35
 70
     1
102
RTVSPost2010Prop36
280
     0
102
RTVSPost2010PropOp36
 70
     1
102
RTVSPost2010Prop37
 90
       50
102
RTVSPost2010PropOp37
 70
     1
102
RTVSPost2010Prop38
140
0.0
102
RTVSPost2010PropOp38
 70
     1
102
RTVSPost2010Prop39
140
1.0
102
RTVSPost2010PropOp39
 70
     1
102
RTVSPost2010Prop40
 90
        0
102
RTVSPost2010PropOp40
 70
     1
102
RTVSPost2010Prop41ColorIndex
 90
       18
102
RTVSPost2010Prop41ColorRGB
 90
        0
102
RTVSPost2010PropOp41
 70
     1
102
RTVSPost2010Prop42
 90
       50
102
RTVSPost2010PropOp42
 70
     1
102
RTVSPost2010Prop43
 90
        3
102
RTVSPost2010PropOp43
 70
     1
102
RTVSPost2010Prop44ColorIndex
 90
        5
102
RTVSPost2010Prop44ColorRGB
 90
      255
102
RTVSPost2010PropOp44
 70
     1
102
RTVSPost2010Prop45
280
     0
102
RTVSPost2010PropOp45
 70
     1
102
RTVSPost2010Prop46
 90
       50
102
RTVSPost2010PropOp46
 70
     1
102
RTVSPost2010Prop47
 90
       50
102
RTVSPost2010PropOp47
 70
     1
102
RTVSPost2010Prop48
 90
       50
102
RTVSPost2010PropOp48
 70
     1
102
RTVSPost2010Prop49
280
     0
102
RTVSPost2010PropOp49
 70
     1
102
RTVSPost2010Prop50
 90
       50
102
RTVSPost2010PropOp50
 70
     1
102
RTVSPost2010Prop51ColorIndex
 90
      256
102
RTVSPost2010Prop51ColorRGB
 90
-16777216
102
RTVSPost2010PropOp51
 70
     0
102
RTVSPost2010Prop52
140
1.0
102
RTVSPost2010PropOp52
 70
     0
102
RTVSPost2010Prop53
 90
        2
102
RTVSPost2010PropOp53
 70
     1
102
RTVSPost2010Prop54
  1
strokes_ogs.tif
102
RTVSPost2010PropOp54
 70
     1
102
RTVSPost2010Prop55
280
     0
102
RTVSPost2010PropOp55
 70
     1
102
RTVSPost2010Prop56
140
1.0
102
RTVSPost2010PropOp56
 70
     1
102
RTVSPost2010Prop57
140
1.0
102
RTVSPost2010PropOp57
 70
     1
  0
XRECORD
  5
428
102
{ACAD_REACTORS
330
427
102
}
330
427
100
AcDbXrecord
280
     1
102
RTVSPost2010Prop28
280
     0
102
RTVSPost2010PropOp28
 70
     1
102
RTVSPost2010Prop29
280
     1
102
RTVSPost2010PropOp29
 70
     1
102
RTVSPost2010Prop30
280
     1
102
RTVSPost2010PropOp30
 70
     1
102
RTVSPost2010Prop31
280
     0
102
RTVSPost2010PropOp31
 70
     1
102
RTVSPost2010Prop32
280
     0
102
RTVSPost2010PropOp32
 70
     1
102
RTVSPost2010Prop33
280
     0
102
RTVSPost2010PropOp33
 70
     1
102
RTVSPost2010Prop34
280
     0
102
RTVSPost2010PropOp34
 70
     1
102
RTVSPost2010Prop35
280
     0
102
RTVSPost2010PropOp35
 70
     1
102
RTVSPost2010Prop36
280
     0
102
RTVSPost2010PropOp36
 70
     1
102
RTVSPost2010Prop37
 90
       50
102
RTVSPost2010PropOp37
 70
     1
102
RTVSPost2010Prop38
140
0.0
102
RTVSPost2010PropOp38
 70
     1
102
RTVSPost2010Prop39
140
1.0
102
RTVSPost2010PropOp39
 70
     1
102
RTVSPost2010Prop40
 90
        0
102
RTVSPost2010PropOp40
 70
     1
102
RTVSPost2010Prop41ColorIndex
 90
       18
102
RTVSPost2010Prop41ColorRGB
 90
        0
102
RTVSPost2010PropOp41
 70
     1
102
RTVSPost2010Prop42
 90
       50
102
RTVSPost2010PropOp42
 70
     1
102
RTVSPost2010Prop43
 90
        3
102
RTVSPost2010PropOp43
 70
     1
102
RTVSPost2010Prop44ColorIndex
 90
        5
102
RTVSPost2010Prop44ColorRGB
 90
      255
102
RTVSPost2010PropOp44
 70
     1
102
RTVSPost2010Prop45
280
     0
102
RTVSPost2010PropOp45
 70
     1
102
RTVSPost2010Prop46
 90
       50
102
RTVSPost2010PropOp46
 70
     1
102
RTVSPost2010Prop47
 90
       50
102
RTVSPost2010PropOp47
 70
     1
102
RTVSPost2010Prop48
 90
       50
102
RTVSPost2010PropOp48
 70
     1
102
RTVSPost2010Prop49
280
     0
102
RTVSPost2010PropOp49
 70
     1
102
RTVSPost2010Prop50
 90
       50
102
RTVSPost2010PropOp50
 70
     1
102
RTVSPost2010Prop51ColorIndex
 90
      256
102
RTVSPost2010Prop51ColorRGB
 90
-16777216
102
RTVSPost2010PropOp51
 70
     0
102
RTVSPost2010Prop52
140
1.0
102
RTVSPost2010PropOp52
 70
     0
102
RTVSPost2010Prop53
 90
        2
102
RTVSPost2010PropOp53
 70
     1
102
RTVSPost2010Prop54
  1
strokes_ogs.tif
102
RTVSPost2010PropOp54
 70
     1
102
RTVSPost2010Prop55
280
     0
102
RTVSPost2010PropOp55
 70
     1
102
RTVSPost2010Prop56
140
1.0
102
RTVSPost2010PropOp56
 70
     1
102
RTVSPost2010Prop57
140
1.0
102
RTVSPost2010PropOp57
 70
     1
  0
XRECORD
  5
42A
102
{ACAD_REACTORS
330
429
102
}
330
429
100
AcDbXrecord
280
     1
102
RTVSPost2010Prop28
280
     0
102
RTVSPost2010PropOp28
 70
     1
102
RTVSPost2010Prop29
280
     1
102
RTVSPost2010PropOp29
 70
     1
102
RTVSPost2010Prop30
280
     1
102
RTVSPost2010PropOp30
 70
     1
102
RTVSPost2010Prop31
280
     0
102
RTVSPost2010PropOp31
 70
     1
102
RTVSPost2010Prop32
280
     0
102
RTVSPost2010PropOp32
 70
     1
102
RTVSPost2010Prop33
280
     0
102
RTVSPost2010PropOp33
 70
     1
102
RTVSPost2010Prop34
280
     0
102
RTVSPost2010PropOp34
 70
     1
102
RTVSPost2010Prop35
280
     0
102
RTVSPost2010PropOp35
 70
     1
102
RTVSPost2010Prop36
280
     0
102
RTVSPost2010PropOp36
 70
     1
102
RTVSPost2010Prop37
 90
       50
102
RTVSPost2010PropOp37
 70
     1
102
RTVSPost2010Prop38
140
0.0
102
RTVSPost2010PropOp38
 70
     1
102
RTVSPost2010Prop39
140
1.0
102
RTVSPost2010PropOp39
 70
     1
102
RTVSPost2010Prop40
 90
        0
102
RTVSPost2010PropOp40
 70
     1
102
RTVSPost2010Prop41ColorIndex
 90
       18
102
RTVSPost2010Prop41ColorRGB
 90
        0
102
RTVSPost2010PropOp41
 70
     1
102
RTVSPost2010Prop42
 90
       50
102
RTVSPost2010PropOp42
 70
     1
102
RTVSPost2010Prop43
 90
        3
102
RTVSPost2010PropOp43
 70
     1
102
RTVSPost2010Prop44ColorIndex
 90
        5
102
RTVSPost2010Prop44ColorRGB
 90
      255
102
RTVSPost2010PropOp44
 70
     1
102
RTVSPost2010Prop45
280
     0
102
RTVSPost2010PropOp45
 70
     1
102
RTVSPost2010Prop46
 90
       50
102
RTVSPost2010PropOp46
 70
     1
102
RTVSPost2010Prop47
 90
       50
102
RTVSPost2010PropOp47
 70
     1
102
RTVSPost2010Prop48
 90
       50
102
RTVSPost2010PropOp48
 70
     1
102
RTVSPost2010Prop49
280
     0
102
RTVSPost2010PropOp49
 70
     1
102
RTVSPost2010Prop50
 90
       50
102
RTVSPost2010PropOp50
 70
     1
102
RTVSPost2010Prop51ColorIndex
 90
      256
102
RTVSPost2010Prop51ColorRGB
 90
-16777216
102
RTVSPost2010PropOp51
 70
     0
102
RTVSPost2010Prop52
140
1.0
102
RTVSPost2010PropOp52
 70
     0
102
RTVSPost2010Prop53
 90
        2
102
RTVSPost2010PropOp53
 70
     1
102
RTVSPost2010Prop54
  1
strokes_ogs.tif
102
RTVSPost2010PropOp54
 70
     1
102
RTVSPost2010Prop55
280
     0
102
RTVSPost2010PropOp55
 70
     1
102
RTVSPost2010Prop56
140
1.0
102
RTVSPost2010PropOp56
 70
     1
102
RTVSPost2010Prop57
140
1.0
102
RTVSPost2010PropOp57
 70
     1
  0
XRECORD
  5
430
102
{ACAD_REACTORS
330
42F
102
}
330
42F
100
AcDbXrecord
280
     1
102
RTVSPost2010Prop28
280
     0
102
RTVSPost2010PropOp28
 70
     1
102
RTVSPost2010Prop29
280
     1
102
RTVSPost2010PropOp29
 70
     1
102
RTVSPost2010Prop30
280
     1
102
RTVSPost2010PropOp30
 70
     1
102
RTVSPost2010Prop31
280
     0
102
RTVSPost2010PropOp31
 70
     1
102
RTVSPost2010Prop32
280
     0
102
RTVSPost2010PropOp32
 70
     1
102
RTVSPost2010Prop33
280
     0
102
RTVSPost2010PropOp33
 70
     1
102
RTVSPost2010Prop34
280
     0
102
RTVSPost2010PropOp34
 70
     1
102
RTVSPost2010Prop35
280
     0
102
RTVSPost2010PropOp35
 70
     1
102
RTVSPost2010Prop36
280
     0
102
RTVSPost2010PropOp36
 70
     1
102
RTVSPost2010Prop37
 90
       50
102
RTVSPost2010PropOp37
 70
     1
102
RTVSPost2010Prop38
140
0.0
102
RTVSPost2010PropOp38
 70
     1
102
RTVSPost2010Prop39
140
1.0
102
RTVSPost2010PropOp39
 70
     1
102
RTVSPost2010Prop40
 90
        0
102
RTVSPost2010PropOp40
 70
     1
102
RTVSPost2010Prop41ColorIndex
 90
       18
102
RTVSPost2010Prop41ColorRGB
 90
        0
102
RTVSPost2010PropOp41
 70
     1
102
RTVSPost2010Prop42
 90
       50
102
RTVSPost2010PropOp42
 70
     1
102
RTVSPost2010Prop43
 90
        3
102
RTVSPost2010PropOp43
 70
     1
102
RTVSPost2010Prop44ColorIndex
 90
        5
102
RTVSPost2010Prop44ColorRGB
 90
      255
102
RTVSPost2010PropOp44
 70
     1
102
RTVSPost2010Prop45
280
     0
102
RTVSPost2010PropOp45
 70
     1
102
RTVSPost2010Prop46
 90
       50
102
RTVSPost2010PropOp46
 70
     1
102
RTVSPost2010Prop47
 90
       50
102
RTVSPost2010PropOp47
 70
     1
102
RTVSPost2010Prop48
 90
       50
102
RTVSPost2010PropOp48
 70
     1
102
RTVSPost2010Prop49
280
     0
102
RTVSPost2010PropOp49
 70
     1
102
RTVSPost2010Prop50
 90
       50
102
RTVSPost2010PropOp50
 70
     1
102
RTVSPost2010Prop51ColorIndex
 90
      256
102
RTVSPost2010Prop51ColorRGB
 90
-16777216
102
RTVSPost2010PropOp51
 70
     0
102
RTVSPost2010Prop52
140
1.0
102
RTVSPost2010PropOp52
 70
     0
102
RTVSPost2010Prop53
 90
        2
102
RTVSPost2010PropOp53
 70
     1
102
RTVSPost2010Prop54
  1
strokes_ogs.tif
102
RTVSPost2010PropOp54
 70
     1
102
RTVSPost2010Prop55
280
     0
102
RTVSPost2010PropOp55
 70
     1
102
RTVSPost2010Prop56
140
1.0
102
RTVSPost2010PropOp56
 70
     1
102
RTVSPost2010Prop57
140
1.0
102
RTVSPost2010PropOp57
 70
     1
  0
XRECORD
  5
444
102
{ACAD_REACTORS
330
443
102
}
330
443
100
AcDbXrecord
280
     1
102
RTVSPost2010Prop28
280
     0
102
RTVSPost2010PropOp28
 70
     0
102
RTVSPost2010Prop29
280
     1
102
RTVSPost2010PropOp29
 70
     0
102
RTVSPost2010Prop30
280
     1
102
RTVSPost2010PropOp30
 70
     0
102
RTVSPost2010Prop31
280
     0
102
RTVSPost2010PropOp31
 70
     0
102
RTVSPost2010Prop32
280
     0
102
RTVSPost2010PropOp32
 70
     0
102
RTVSPost2010Prop33
280
     0
102
RTVSPost2010PropOp33
 70
     0
102
RTVSPost2010Prop34
280
     0
102
RTVSPost2010PropOp34
 70
     0
102
RTVSPost2010Prop35
280
     0
102
RTVSPost2010PropOp35
 70
     0
102
RTVSPost2010Prop36
280
     0
102
RTVSPost2010PropOp36
 70
     0
102
RTVSPost2010Prop37
 90
       50
102
RTVSPost2010PropOp37
 70
     0
102
RTVSPost2010Prop38
140
0.0
102
RTVSPost2010PropOp38
 70
     0
102
RTVSPost2010Prop39
140
1.0
102
RTVSPost2010PropOp39
 70
     0
102
RTVSPost2010Prop40
 90
        0
102
RTVSPost2010PropOp40
 70
     0
102
RTVSPost2010Prop41ColorIndex
 90
       18
102
RTVSPost2010Prop41ColorRGB
 90
        0
102
RTVSPost2010PropOp41
 70
     0
102
RTVSPost2010Prop42
 90
       50
102
RTVSPost2010PropOp42
 70
     0
102
RTVSPost2010Prop43
 90
        3
102
RTVSPost2010PropOp43
 70
     0
102
RTVSPost2010Prop44ColorIndex
 90
        5
102
RTVSPost2010Prop44ColorRGB
 90
      255
102
RTVSPost2010PropOp44
 70
     0
102
RTVSPost2010Prop45
280
     0
102
RTVSPost2010PropOp45
 70
     0
102
RTVSPost2010Prop46
 90
       50
102
RTVSPost2010PropOp46
 70
     0
102
RTVSPost2010Prop47
 90
       50
102
RTVSPost2010PropOp47
 70
     0
102
RTVSPost2010Prop48
 90
       50
102
RTVSPost2010PropOp48
 70
     0
102
RTVSPost2010Prop49
280
     0
102
RTVSPost2010PropOp49
 70
     0
102
RTVSPost2010Prop50
 90
       50
102
RTVSPost2010PropOp50
 70
     0
102
RTVSPost2010Prop51ColorIndex
 90
      256
102
RTVSPost2010Prop51ColorRGB
 90
-16777216
102
RTVSPost2010PropOp51
 70
     0
102
RTVSPost2010Prop52
140
1.0
102
RTVSPost2010PropOp52
 70
     0
102
RTVSPost2010Prop53
 90
        2
102
RTVSPost2010PropOp53
 70
     0
102
RTVSPost2010Prop54
  1
strokes_ogs.tif
102
RTVSPost2010PropOp54
 70
     0
102
RTVSPost2010Prop55
280
     0
102
RTVSPost2010PropOp55
 70
     0
102
RTVSPost2010Prop56
140
1.0
102
RTVSPost2010PropOp56
 70
     0
102
RTVSPost2010Prop57
140
1.0
102
RTVSPost2010PropOp57
 70
     0
  0
XRECORD
  5
43E
102
{ACAD_REACTORS
330
43D
102
}
330
43D
100
AcDbXrecord
280
     1
102
RTVSPost2010Prop28
280
     0
102
RTVSPost2010PropOp28
 70
     1
102
RTVSPost2010Prop29
280
     1
102
RTVSPost2010PropOp29
 70
     1
102
RTVSPost2010Prop30
280
     1
102
RTVSPost2010PropOp30
 70
     1
102
RTVSPost2010Prop31
280
     0
102
RTVSPost2010PropOp31
 70
     1
102
RTVSPost2010Prop32
280
     0
102
RTVSPost2010PropOp32
 70
     1
102
RTVSPost2010Prop33
280
     0
102
RTVSPost2010PropOp33
 70
     1
102
RTVSPost2010Prop34
280
     0
102
RTVSPost2010PropOp34
 70
     1
102
RTVSPost2010Prop35
280
     0
102
RTVSPost2010PropOp35
 70
     1
102
RTVSPost2010Prop36
280
     0
102
RTVSPost2010PropOp36
 70
     1
102
RTVSPost2010Prop37
 90
       50
102
RTVSPost2010PropOp37
 70
     1
102
RTVSPost2010Prop38
140
0.0
102
RTVSPost2010PropOp38
 70
     1
102
RTVSPost2010Prop39
140
1.0
102
RTVSPost2010PropOp39
 70
     1
102
RTVSPost2010Prop40
 90
        0
102
RTVSPost2010PropOp40
 70
     1
102
RTVSPost2010Prop41ColorIndex
 90
       18
102
RTVSPost2010Prop41ColorRGB
 90
        0
102
RTVSPost2010PropOp41
 70
     1
102
RTVSPost2010Prop42
 90
       50
102
RTVSPost2010PropOp42
 70
     1
102
RTVSPost2010Prop43
 90
        3
102
RTVSPost2010PropOp43
 70
     1
102
RTVSPost2010Prop44ColorIndex
 90
        5
102
RTVSPost2010Prop44ColorRGB
 90
      255
102
RTVSPost2010PropOp44
 70
     1
102
RTVSPost2010Prop45
280
     0
102
RTVSPost2010PropOp45
 70
     1
102
RTVSPost2010Prop46
 90
       50
102
RTVSPost2010PropOp46
 70
     1
102
RTVSPost2010Prop47
 90
       50
102
RTVSPost2010PropOp47
 70
     1
102
RTVSPost2010Prop48
 90
       50
102
RTVSPost2010PropOp48
 70
     1
102
RTVSPost2010Prop49
280
     0
102
RTVSPost2010PropOp49
 70
     1
102
RTVSPost2010Prop50
 90
       50
102
RTVSPost2010PropOp50
 70
     1
102
RTVSPost2010Prop51ColorIndex
 90
      256
102
RTVSPost2010Prop51ColorRGB
 90
-16777216
102
RTVSPost2010PropOp51
 70
     0
102
RTVSPost2010Prop52
140
1.0
102
RTVSPost2010PropOp52
 70
     0
102
RTVSPost2010Prop53
 90
        2
102
RTVSPost2010PropOp53
 70
     1
102
RTVSPost2010Prop54
  1
strokes_ogs.tif
102
RTVSPost2010PropOp54
 70
     1
102
RTVSPost2010Prop55
280
     0
102
RTVSPost2010PropOp55
 70
     1
102
RTVSPost2010Prop56
140
1.0
102
RTVSPost2010PropOp56
 70
     1
102
RTVSPost2010Prop57
140
1.0
102
RTVSPost2010PropOp57
 70
     1
  0
XRECORD
  5
446
102
{ACAD_REACTORS
330
445
102
}
330
445
100
AcDbXrecord
280
     1
102
RTVSPost2010Prop28
280
     0
102
RTVSPost2010PropOp28
 70
     0
102
RTVSPost2010Prop29
280
     1
102
RTVSPost2010PropOp29
 70
     0
102
RTVSPost2010Prop30
280
     1
102
RTVSPost2010PropOp30
 70
     0
102
RTVSPost2010Prop31
280
     0
102
RTVSPost2010PropOp31
 70
     0
102
RTVSPost2010Prop32
280
     0
102
RTVSPost2010PropOp32
 70
     0
102
RTVSPost2010Prop33
280
     0
102
RTVSPost2010PropOp33
 70
     0
102
RTVSPost2010Prop34
280
     0
102
RTVSPost2010PropOp34
 70
     0
102
RTVSPost2010Prop35
280
     0
102
RTVSPost2010PropOp35
 70
     0
102
RTVSPost2010Prop36
280
     0
102
RTVSPost2010PropOp36
 70
     0
102
RTVSPost2010Prop37
 90
       50
102
RTVSPost2010PropOp37
 70
     0
102
RTVSPost2010Prop38
140
0.0
102
RTVSPost2010PropOp38
 70
     0
102
RTVSPost2010Prop39
140
1.0
102
RTVSPost2010PropOp39
 70
     0
102
RTVSPost2010Prop40
 90
        0
102
RTVSPost2010PropOp40
 70
     0
102
RTVSPost2010Prop41ColorIndex
 90
       18
102
RTVSPost2010Prop41ColorRGB
 90
        0
102
RTVSPost2010PropOp41
 70
     0
102
RTVSPost2010Prop42
 90
       50
102
RTVSPost2010PropOp42
 70
     0
102
RTVSPost2010Prop43
 90
        3
102
RTVSPost2010PropOp43
 70
     0
102
RTVSPost2010Prop44ColorIndex
 90
        5
102
RTVSPost2010Prop44ColorRGB
 90
      255
102
RTVSPost2010PropOp44
 70
     0
102
RTVSPost2010Prop45
280
     0
102
RTVSPost2010PropOp45
 70
     0
102
RTVSPost2010Prop46
 90
       50
102
RTVSPost2010PropOp46
 70
     0
102
RTVSPost2010Prop47
 90
       50
102
RTVSPost2010PropOp47
 70
     0
102
RTVSPost2010Prop48
 90
       50
102
RTVSPost2010PropOp48
 70
     0
102
RTVSPost2010Prop49
280
     0
102
RTVSPost2010PropOp49
 70
     0
102
RTVSPost2010Prop50
 90
       50
102
RTVSPost2010PropOp50
 70
     0
102
RTVSPost2010Prop51ColorIndex
 90
      256
102
RTVSPost2010Prop51ColorRGB
 90
-16777216
102
RTVSPost2010PropOp51
 70
     0
102
RTVSPost2010Prop52
140
1.0
102
RTVSPost2010PropOp52
 70
     0
102
RTVSPost2010Prop53
 90
        2
102
RTVSPost2010PropOp53
 70
     0
102
RTVSPost2010Prop54
  1
strokes_ogs.tif
102
RTVSPost2010PropOp54
 70
     0
102
RTVSPost2010Prop55
280
     0
102
RTVSPost2010PropOp55
 70
     0
102
RTVSPost2010Prop56
140
1.0
102
RTVSPost2010PropOp56
 70
     0
102
RTVSPost2010Prop57
140
1.0
102
RTVSPost2010PropOp57
 70
     0
  0
XRECORD
  5
434
102
{ACAD_REACTORS
330
433
102
}
330
433
100
AcDbXrecord
280
     1
102
RTVSPost2010Prop28
280
     0
102
RTVSPost2010PropOp28
 70
     1
102
RTVSPost2010Prop29
280
     1
102
RTVSPost2010PropOp29
 70
     1
102
RTVSPost2010Prop30
280
     1
102
RTVSPost2010PropOp30
 70
     1
102
RTVSPost2010Prop31
280
     0
102
RTVSPost2010PropOp31
 70
     1
102
RTVSPost2010Prop32
280
     0
102
RTVSPost2010PropOp32
 70
     1
102
RTVSPost2010Prop33
280
     0
102
RTVSPost2010PropOp33
 70
     1
102
RTVSPost2010Prop34
280
     0
102
RTVSPost2010PropOp34
 70
     1
102
RTVSPost2010Prop35
280
     0
102
RTVSPost2010PropOp35
 70
     1
102
RTVSPost2010Prop36
280
     0
102
RTVSPost2010PropOp36
 70
     1
102
RTVSPost2010Prop37
 90
       50
102
RTVSPost2010PropOp37
 70
     1
102
RTVSPost2010Prop38
140
0.0
102
RTVSPost2010PropOp38
 70
     1
102
RTVSPost2010Prop39
140
1.0
102
RTVSPost2010PropOp39
 70
     1
102
RTVSPost2010Prop40
 90
        0
102
RTVSPost2010PropOp40
 70
     1
102
RTVSPost2010Prop41ColorIndex
 90
       18
102
RTVSPost2010Prop41ColorRGB
 90
        0
102
RTVSPost2010PropOp41
 70
     1
102
RTVSPost2010Prop42
 90
       50
102
RTVSPost2010PropOp42
 70
     1
102
RTVSPost2010Prop43
 90
        3
102
RTVSPost2010PropOp43
 70
     1
102
RTVSPost2010Prop44ColorIndex
 90
        5
102
RTVSPost2010Prop44ColorRGB
 90
      255
102
RTVSPost2010PropOp44
 70
     1
102
RTVSPost2010Prop45
280
     0
102
RTVSPost2010PropOp45
 70
     1
102
RTVSPost2010Prop46
 90
       50
102
RTVSPost2010PropOp46
 70
     1
102
RTVSPost2010Prop47
 90
       50
102
RTVSPost2010PropOp47
 70
     1
102
RTVSPost2010Prop48
 90
       50
102
RTVSPost2010PropOp48
 70
     1
102
RTVSPost2010Prop49
280
     0
102
RTVSPost2010PropOp49
 70
     1
102
RTVSPost2010Prop50
 90
       50
102
RTVSPost2010PropOp50
 70
     1
102
RTVSPost2010Prop51ColorIndex
 90
      256
102
RTVSPost2010Prop51ColorRGB
 90
-16777216
102
RTVSPost2010PropOp51
 70
     0
102
RTVSPost2010Prop52
140
1.0
102
RTVSPost2010PropOp52
 70
     0
102
RTVSPost2010Prop53
 90
        2
102
RTVSPost2010PropOp53
 70
     1
102
RTVSPost2010Prop54
  1
strokes_ogs.tif
102
RTVSPost2010PropOp54
 70
     1
102
RTVSPost2010Prop55
280
     0
102
RTVSPost2010PropOp55
 70
     1
102
RTVSPost2010Prop56
140
1.0
102
RTVSPost2010PropOp56
 70
     1
102
RTVSPost2010Prop57
140
1.0
102
RTVSPost2010PropOp57
 70
     1
  0
XRECORD
  5
452
102
{ACAD_REACTORS
330
451
102
}
330
451
100
AcDbXrecord
280
     1
102
RTVSPost2010Prop28
280
     0
102
RTVSPost2010PropOp28
 70
     1
102
RTVSPost2010Prop29
280
     1
102
RTVSPost2010PropOp29
 70
     1
102
RTVSPost2010Prop30
280
     1
102
RTVSPost2010PropOp30
 70
     1
102
RTVSPost2010Prop31
280
     0
102
RTVSPost2010PropOp31
 70
     1
102
RTVSPost2010Prop32
280
     0
102
RTVSPost2010PropOp32
 70
     1
102
RTVSPost2010Prop33
280
     0
102
RTVSPost2010PropOp33
 70
     1
102
RTVSPost2010Prop34
280
     0
102
RTVSPost2010PropOp34
 70
     1
102
RTVSPost2010Prop35
280
     0
102
RTVSPost2010PropOp35
 70
     1
102
RTVSPost2010Prop36
280
     0
102
RTVSPost2010PropOp36
 70
     1
102
RTVSPost2010Prop37
 90
       50
102
RTVSPost2010PropOp37
 70
     1
102
RTVSPost2010Prop38
140
0.0
102
RTVSPost2010PropOp38
 70
     1
102
RTVSPost2010Prop39
140
1.0
102
RTVSPost2010PropOp39
 70
     1
102
RTVSPost2010Prop40
 90
        0
102
RTVSPost2010PropOp40
 70
     1
102
RTVSPost2010Prop41ColorIndex
 90
       18
102
RTVSPost2010Prop41ColorRGB
 90
        0
102
RTVSPost2010PropOp41
 70
     1
102
RTVSPost2010Prop42
 90
       50
102
RTVSPost2010PropOp42
 70
     1
102
RTVSPost2010Prop43
 90
        3
102
RTVSPost2010PropOp43
 70
     1
102
RTVSPost2010Prop44ColorIndex
 90
        5
102
RTVSPost2010Prop44ColorRGB
 90
      255
102
RTVSPost2010PropOp44
 70
     1
102
RTVSPost2010Prop45
280
     0
102
RTVSPost2010PropOp45
 70
     1
102
RTVSPost2010Prop46
 90
       50
102
RTVSPost2010PropOp46
 70
     1
102
RTVSPost2010Prop47
 90
       50
102
RTVSPost2010PropOp47
 70
     1
102
RTVSPost2010Prop48
 90
       50
102
RTVSPost2010PropOp48
 70
     1
102
RTVSPost2010Prop49
280
     0
102
RTVSPost2010PropOp49
 70
     1
102
RTVSPost2010Prop50
 90
       50
102
RTVSPost2010PropOp50
 70
     1
102
RTVSPost2010Prop51ColorIndex
 90
      256
102
RTVSPost2010Prop51ColorRGB
 90
-16777216
102
RTVSPost2010PropOp51
 70
     0
102
RTVSPost2010Prop52
140
1.0
102
RTVSPost2010PropOp52
 70
     0
102
RTVSPost2010Prop53
 90
        2
102
RTVSPost2010PropOp53
 70
     1
102
RTVSPost2010Prop54
  1
strokes_ogs.tif
102
RTVSPost2010PropOp54
 70
     1
102
RTVSPost2010Prop55
280
     0
102
RTVSPost2010PropOp55
 70
     1
102
RTVSPost2010Prop56
140
1.0
102
RTVSPost2010PropOp56
 70
     1
102
RTVSPost2010Prop57
140
1.0
102
RTVSPost2010PropOp57
 70
     1
  0
XRECORD
  5
450
102
{ACAD_REACTORS
330
44F
102
}
330
44F
100
AcDbXrecord
280
     1
102
RTVSPost2010Prop28
280
     0
102
RTVSPost2010PropOp28
 70
     1
102
RTVSPost2010Prop29
280
     1
102
RTVSPost2010PropOp29
 70
     1
102
RTVSPost2010Prop30
280
     1
102
RTVSPost2010PropOp30
 70
     1
102
RTVSPost2010Prop31
280
     0
102
RTVSPost2010PropOp31
 70
     1
102
RTVSPost2010Prop32
280
     0
102
RTVSPost2010PropOp32
 70
     1
102
RTVSPost2010Prop33
280
     0
102
RTVSPost2010PropOp33
 70
     1
102
RTVSPost2010Prop34
280
     0
102
RTVSPost2010PropOp34
 70
     1
102
RTVSPost2010Prop35
280
     0
102
RTVSPost2010PropOp35
 70
     1
102
RTVSPost2010Prop36
280
     0
102
RTVSPost2010PropOp36
 70
     1
102
RTVSPost2010Prop37
 90
       50
102
RTVSPost2010PropOp37
 70
     1
102
RTVSPost2010Prop38
140
0.0
102
RTVSPost2010PropOp38
 70
     1
102
RTVSPost2010Prop39
140
1.0
102
RTVSPost2010PropOp39
 70
     1
102
RTVSPost2010Prop40
 90
        0
102
RTVSPost2010PropOp40
 70
     1
102
RTVSPost2010Prop41ColorIndex
 90
       18
102
RTVSPost2010Prop41ColorRGB
 90
        0
102
RTVSPost2010PropOp41
 70
     1
102
RTVSPost2010Prop42
 90
       50
102
RTVSPost2010PropOp42
 70
     1
102
RTVSPost2010Prop43
 90
        3
102
RTVSPost2010PropOp43
 70
     1
102
RTVSPost2010Prop44ColorIndex
 90
        5
102
RTVSPost2010Prop44ColorRGB
 90
      255
102
RTVSPost2010PropOp44
 70
     1
102
RTVSPost2010Prop45
280
     0
102
RTVSPost2010PropOp45
 70
     1
102
RTVSPost2010Prop46
 90
       50
102
RTVSPost2010PropOp46
 70
     1
102
RTVSPost2010Prop47
 90
       50
102
RTVSPost2010PropOp47
 70
     1
102
RTVSPost2010Prop48
 90
       50
102
RTVSPost2010PropOp48
 70
     1
102
RTVSPost2010Prop49
280
     0
102
RTVSPost2010PropOp49
 70
     1
102
RTVSPost2010Prop50
 90
       50
102
RTVSPost2010PropOp50
 70
     1
102
RTVSPost2010Prop51ColorIndex
 90
      256
102
RTVSPost2010Prop51ColorRGB
 90
-16777216
102
RTVSPost2010PropOp51
 70
     0
102
RTVSPost2010Prop52
140
1.0
102
RTVSPost2010PropOp52
 70
     0
102
RTVSPost2010Prop53
 90
        2
102
RTVSPost2010PropOp53
 70
     1
102
RTVSPost2010Prop54
  1
strokes_ogs.tif
102
RTVSPost2010PropOp54
 70
     1
102
RTVSPost2010Prop55
280
     0
102
RTVSPost2010PropOp55
 70
     1
102
RTVSPost2010Prop56
140
1.0
102
RTVSPost2010PropOp56
 70
     1
102
RTVSPost2010Prop57
140
1.0
102
RTVSPost2010PropOp57
 70
     1
  0
XRECORD
  5
44A
102
{ACAD_REACTORS
330
449
102
}
330
449
100
AcDbXrecord
280
     1
102
RTVSPost2010Prop28
280
     0
102
RTVSPost2010PropOp28
 70
     1
102
RTVSPost2010Prop29
280
     1
102
RTVSPost2010PropOp29
 70
     1
102
RTVSPost2010Prop30
280
     1
102
RTVSPost2010PropOp30
 70
     1
102
RTVSPost2010Prop31
280
     0
102
RTVSPost2010PropOp31
 70
     1
102
RTVSPost2010Prop32
280
     0
102
RTVSPost2010PropOp32
 70
     1
102
RTVSPost2010Prop33
280
     0
102
RTVSPost2010PropOp33
 70
     1
102
RTVSPost2010Prop34
280
     0
102
RTVSPost2010PropOp34
 70
     1
102
RTVSPost2010Prop35
280
     0
102
RTVSPost2010PropOp35
 70
     1
102
RTVSPost2010Prop36
280
     0
102
RTVSPost2010PropOp36
 70
     1
102
RTVSPost2010Prop37
 90
       50
102
RTVSPost2010PropOp37
 70
     1
102
RTVSPost2010Prop38
140
0.0
102
RTVSPost2010PropOp38
 70
     1
102
RTVSPost2010Prop39
140
1.0
102
RTVSPost2010PropOp39
 70
     1
102
RTVSPost2010Prop40
 90
        0
102
RTVSPost2010PropOp40
 70
     1
102
RTVSPost2010Prop41ColorIndex
 90
       18
102
RTVSPost2010Prop41ColorRGB
 90
        0
102
RTVSPost2010PropOp41
 70
     1
102
RTVSPost2010Prop42
 90
       50
102
RTVSPost2010PropOp42
 70
     1
102
RTVSPost2010Prop43
 90
        3
102
RTVSPost2010PropOp43
 70
     1
102
RTVSPost2010Prop44ColorIndex
 90
        5
102
RTVSPost2010Prop44ColorRGB
 90
      255
102
RTVSPost2010PropOp44
 70
     1
102
RTVSPost2010Prop45
280
     0
102
RTVSPost2010PropOp45
 70
     1
102
RTVSPost2010Prop46
 90
       50
102
RTVSPost2010PropOp46
 70
     1
102
RTVSPost2010Prop47
 90
       50
102
RTVSPost2010PropOp47
 70
     1
102
RTVSPost2010Prop48
 90
       50
102
RTVSPost2010PropOp48
 70
     1
102
RTVSPost2010Prop49
280
     0
102
RTVSPost2010PropOp49
 70
     1
102
RTVSPost2010Prop50
 90
       50
102
RTVSPost2010PropOp50
 70
     1
102
RTVSPost2010Prop51ColorIndex
 90
      256
102
RTVSPost2010Prop51ColorRGB
 90
-16777216
102
RTVSPost2010PropOp51
 70
     0
102
RTVSPost2010Prop52
140
1.0
102
RTVSPost2010PropOp52
 70
     0
102
RTVSPost2010Prop53
 90
        2
102
RTVSPost2010PropOp53
 70
     1
102
RTVSPost2010Prop54
  1
strokes_ogs.tif
102
RTVSPost2010PropOp54
 70
     1
102
RTVSPost2010Prop55
280
     0
102
RTVSPost2010PropOp55
 70
     1
102
RTVSPost2010Prop56
140
1.0
102
RTVSPost2010PropOp56
 70
     1
102
RTVSPost2010Prop57
140
1.0
102
RTVSPost2010PropOp57
 70
     1
  0
XRECORD
  5
44C
102
{ACAD_REACTORS
330
44B
102
}
330
44B
100
AcDbXrecord
280
     1
102
RTVSPost2010Prop28
280
     0
102
RTVSPost2010PropOp28
 70
     1
102
RTVSPost2010Prop29
280
     1
102
RTVSPost2010PropOp29
 70
     1
102
RTVSPost2010Prop30
280
     1
102
RTVSPost2010PropOp30
 70
     1
102
RTVSPost2010Prop31
280
     0
102
RTVSPost2010PropOp31
 70
     1
102
RTVSPost2010Prop32
280
     0
102
RTVSPost2010PropOp32
 70
     1
102
RTVSPost2010Prop33
280
     0
102
RTVSPost2010PropOp33
 70
     1
102
RTVSPost2010Prop34
280
     0
102
RTVSPost2010PropOp34
 70
     1
102
RTVSPost2010Prop35
280
     0
102
RTVSPost2010PropOp35
 70
     1
102
RTVSPost2010Prop36
280
     0
102
RTVSPost2010PropOp36
 70
     1
102
RTVSPost2010Prop37
 90
       50
102
RTVSPost2010PropOp37
 70
     1
102
RTVSPost2010Prop38
140
0.0
102
RTVSPost2010PropOp38
 70
     1
102
RTVSPost2010Prop39
140
1.0
102
RTVSPost2010PropOp39
 70
     1
102
RTVSPost2010Prop40
 90
        0
102
RTVSPost2010PropOp40
 70
     1
102
RTVSPost2010Prop41ColorIndex
 90
       18
102
RTVSPost2010Prop41ColorRGB
 90
        0
102
RTVSPost2010PropOp41
 70
     1
102
RTVSPost2010Prop42
 90
       50
102
RTVSPost2010PropOp42
 70
     1
102
RTVSPost2010Prop43
 90
        3
102
RTVSPost2010PropOp43
 70
     1
102
RTVSPost2010Prop44ColorIndex
 90
        5
102
RTVSPost2010Prop44ColorRGB
 90
      255
102
RTVSPost2010PropOp44
 70
     1
102
RTVSPost2010Prop45
280
     0
102
RTVSPost2010PropOp45
 70
     1
102
RTVSPost2010Prop46
 90
       50
102
RTVSPost2010PropOp46
 70
     1
102
RTVSPost2010Prop47
 90
       50
102
RTVSPost2010PropOp47
 70
     1
102
RTVSPost2010Prop48
 90
       50
102
RTVSPost2010PropOp48
 70
     1
102
RTVSPost2010Prop49
280
     0
102
RTVSPost2010PropOp49
 70
     1
102
RTVSPost2010Prop50
 90
       50
102
RTVSPost2010PropOp50
 70
     1
102
RTVSPost2010Prop51ColorIndex
 90
      256
102
RTVSPost2010Prop51ColorRGB
 90
-16777216
102
RTVSPost2010PropOp51
 70
     0
102
RTVSPost2010Prop52
140
1.0
102
RTVSPost2010PropOp52
 70
     0
102
RTVSPost2010Prop53
 90
        2
102
RTVSPost2010PropOp53
 70
     1
102
RTVSPost2010Prop54
  1
strokes_ogs.tif
102
RTVSPost2010PropOp54
 70
     1
102
RTVSPost2010Prop55
280
     0
102
RTVSPost2010PropOp55
 70
     1
102
RTVSPost2010Prop56
140
1.0
102
RTVSPost2010PropOp56
 70
     1
102
RTVSPost2010Prop57
140
1.0
102
RTVSPost2010PropOp57
 70
     1
  0
XRECORD
  5
43C
102
{ACAD_REACTORS
330
43B
102
}
330
43B
100
AcDbXrecord
280
     1
102
RTVSPost2010Prop28
280
     0
102
RTVSPost2010PropOp28
 70
     1
102
RTVSPost2010Prop29
280
     1
102
RTVSPost2010PropOp29
 70
     1
102
RTVSPost2010Prop30
280
     1
102
RTVSPost2010PropOp30
 70
     1
102
RTVSPost2010Prop31
280
     0
102
RTVSPost2010PropOp31
 70
     1
102
RTVSPost2010Prop32
280
     0
102
RTVSPost2010PropOp32
 70
     1
102
RTVSPost2010Prop33
280
     0
102
RTVSPost2010PropOp33
 70
     1
102
RTVSPost2010Prop34
280
     0
102
RTVSPost2010PropOp34
 70
     1
102
RTVSPost2010Prop35
280
     0
102
RTVSPost2010PropOp35
 70
     1
102
RTVSPost2010Prop36
280
     0
102
RTVSPost2010PropOp36
 70
     1
102
RTVSPost2010Prop37
 90
       50
102
RTVSPost2010PropOp37
 70
     1
102
RTVSPost2010Prop38
140
0.0
102
RTVSPost2010PropOp38
 70
     1
102
RTVSPost2010Prop39
140
1.0
102
RTVSPost2010PropOp39
 70
     1
102
RTVSPost2010Prop40
 90
        0
102
RTVSPost2010PropOp40
 70
     1
102
RTVSPost2010Prop41ColorIndex
 90
       18
102
RTVSPost2010Prop41ColorRGB
 90
        0
102
RTVSPost2010PropOp41
 70
     1
102
RTVSPost2010Prop42
 90
       50
102
RTVSPost2010PropOp42
 70
     1
102
RTVSPost2010Prop43
 90
        3
102
RTVSPost2010PropOp43
 70
     1
102
RTVSPost2010Prop44ColorIndex
 90
        5
102
RTVSPost2010Prop44ColorRGB
 90
      255
102
RTVSPost2010PropOp44
 70
     1
102
RTVSPost2010Prop45
280
     0
102
RTVSPost2010PropOp45
 70
     1
102
RTVSPost2010Prop46
 90
       50
102
RTVSPost2010PropOp46
 70
     1
102
RTVSPost2010Prop47
 90
       50
102
RTVSPost2010PropOp47
 70
     1
102
RTVSPost2010Prop48
 90
       50
102
RTVSPost2010PropOp48
 70
     1
102
RTVSPost2010Prop49
280
     0
102
RTVSPost2010PropOp49
 70
     1
102
RTVSPost2010Prop50
 90
       50
102
RTVSPost2010PropOp50
 70
     1
102
RTVSPost2010Prop51ColorIndex
 90
      256
102
RTVSPost2010Prop51ColorRGB
 90
-16777216
102
RTVSPost2010PropOp51
 70
     0
102
RTVSPost2010Prop52
140
1.0
102
RTVSPost2010PropOp52
 70
     0
102
RTVSPost2010Prop53
 90
        2
102
RTVSPost2010PropOp53
 70
     1
102
RTVSPost2010Prop54
  1
strokes_ogs.tif
102
RTVSPost2010PropOp54
 70
     1
102
RTVSPost2010Prop55
280
     0
102
RTVSPost2010PropOp55
 70
     1
102
RTVSPost2010Prop56
140
1.0
102
RTVSPost2010PropOp56
 70
     1
102
RTVSPost2010Prop57
140
1.0
102
RTVSPost2010PropOp57
 70
     1
  0
XRECORD
  5
42E
102
{ACAD_REACTORS
330
42D
102
}
330
42D
100
AcDbXrecord
280
     1
102
RTVSPost2010Prop28
280
     0
102
RTVSPost2010PropOp28
 70
     1
102
RTVSPost2010Prop29
280
     1
102
RTVSPost2010PropOp29
 70
     1
102
RTVSPost2010Prop30
280
     1
102
RTVSPost2010PropOp30
 70
     1
102
RTVSPost2010Prop31
280
     0
102
RTVSPost2010PropOp31
 70
     1
102
RTVSPost2010Prop32
280
     0
102
RTVSPost2010PropOp32
 70
     1
102
RTVSPost2010Prop33
280
     0
102
RTVSPost2010PropOp33
 70
     1
102
RTVSPost2010Prop34
280
     0
102
RTVSPost2010PropOp34
 70
     1
102
RTVSPost2010Prop35
280
     0
102
RTVSPost2010PropOp35
 70
     1
102
RTVSPost2010Prop36
280
     0
102
RTVSPost2010PropOp36
 70
     1
102
RTVSPost2010Prop37
 90
       50
102
RTVSPost2010PropOp37
 70
     1
102
RTVSPost2010Prop38
140
0.0
102
RTVSPost2010PropOp38
 70
     1
102
RTVSPost2010Prop39
140
1.0
102
RTVSPost2010PropOp39
 70
     1
102
RTVSPost2010Prop40
 90
        0
102
RTVSPost2010PropOp40
 70
     1
102
RTVSPost2010Prop41ColorIndex
 90
       18
102
RTVSPost2010Prop41ColorRGB
 90
        0
102
RTVSPost2010PropOp41
 70
     1
102
RTVSPost2010Prop42
 90
       50
102
RTVSPost2010PropOp42
 70
     1
102
RTVSPost2010Prop43
 90
        3
102
RTVSPost2010PropOp43
 70
     1
102
RTVSPost2010Prop44ColorIndex
 90
        5
102
RTVSPost2010Prop44ColorRGB
 90
      255
102
RTVSPost2010PropOp44
 70
     1
102
RTVSPost2010Prop45
280
     0
102
RTVSPost2010PropOp45
 70
     1
102
RTVSPost2010Prop46
 90
       50
102
RTVSPost2010PropOp46
 70
     1
102
RTVSPost2010Prop47
 90
       50
102
RTVSPost2010PropOp47
 70
     1
102
RTVSPost2010Prop48
 90
       50
102
RTVSPost2010PropOp48
 70
     1
102
RTVSPost2010Prop49
280
     0
102
RTVSPost2010PropOp49
 70
     1
102
RTVSPost2010Prop50
 90
       50
102
RTVSPost2010PropOp50
 70
     1
102
RTVSPost2010Prop51ColorIndex
 90
      256
102
RTVSPost2010Prop51ColorRGB
 90
-16777216
102
RTVSPost2010PropOp51
 70
     0
102
RTVSPost2010Prop52
140
1.0
102
RTVSPost2010PropOp52
 70
     0
102
RTVSPost2010Prop53
 90
        2
102
RTVSPost2010PropOp53
 70
     1
102
RTVSPost2010Prop54
  1
strokes_ogs.tif
102
RTVSPost2010PropOp54
 70
     1
102
RTVSPost2010Prop55
280
     0
102
RTVSPost2010PropOp55
 70
     1
102
RTVSPost2010Prop56
140
1.0
102
RTVSPost2010PropOp56
 70
     1
102
RTVSPost2010Prop57
140
1.0
102
RTVSPost2010PropOp57
 70
     1
  0
XRECORD
  5
44E
102
{ACAD_REACTORS
330
44D
102
}
330
44D
100
AcDbXrecord
280
     1
102
RTVSPost2010Prop28
280
     0
102
RTVSPost2010PropOp28
 70
     1
102
RTVSPost2010Prop29
280
     1
102
RTVSPost2010PropOp29
 70
     1
102
RTVSPost2010Prop30
280
     1
102
RTVSPost2010PropOp30
 70
     1
102
RTVSPost2010Prop31
280
     0
102
RTVSPost2010PropOp31
 70
     1
102
RTVSPost2010Prop32
280
     0
102
RTVSPost2010PropOp32
 70
     1
102
RTVSPost2010Prop33
280
     0
102
RTVSPost2010PropOp33
 70
     1
102
RTVSPost2010Prop34
280
     0
102
RTVSPost2010PropOp34
 70
     1
102
RTVSPost2010Prop35
280
     0
102
RTVSPost2010PropOp35
 70
     1
102
RTVSPost2010Prop36
280
     0
102
RTVSPost2010PropOp36
 70
     1
102
RTVSPost2010Prop37
 90
       50
102
RTVSPost2010PropOp37
 70
     1
102
RTVSPost2010Prop38
140
0.0
102
RTVSPost2010PropOp38
 70
     1
102
RTVSPost2010Prop39
140
1.0
102
RTVSPost2010PropOp39
 70
     1
102
RTVSPost2010Prop40
 90
        0
102
RTVSPost2010PropOp40
 70
     1
102
RTVSPost2010Prop41ColorIndex
 90
       18
102
RTVSPost2010Prop41ColorRGB
 90
        0
102
RTVSPost2010PropOp41
 70
     1
102
RTVSPost2010Prop42
 90
       50
102
RTVSPost2010PropOp42
 70
     1
102
RTVSPost2010Prop43
 90
        3
102
RTVSPost2010PropOp43
 70
     1
102
RTVSPost2010Prop44ColorIndex
 90
        5
102
RTVSPost2010Prop44ColorRGB
 90
      255
102
RTVSPost2010PropOp44
 70
     1
102
RTVSPost2010Prop45
280
     0
102
RTVSPost2010PropOp45
 70
     1
102
RTVSPost2010Prop46
 90
       50
102
RTVSPost2010PropOp46
 70
     1
102
RTVSPost2010Prop47
 90
       50
102
RTVSPost2010PropOp47
 70
     1
102
RTVSPost2010Prop48
 90
       50
102
RTVSPost2010PropOp48
 70
     1
102
RTVSPost2010Prop49
280
     0
102
RTVSPost2010PropOp49
 70
     1
102
RTVSPost2010Prop50
 90
       50
102
RTVSPost2010PropOp50
 70
     1
102
RTVSPost2010Prop51ColorIndex
 90
      256
102
RTVSPost2010Prop51ColorRGB
 90
-16777216
102
RTVSPost2010PropOp51
 70
     0
102
RTVSPost2010Prop52
140
1.0
102
RTVSPost2010PropOp52
 70
     0
102
RTVSPost2010Prop53
 90
        2
102
RTVSPost2010PropOp53
 70
     1
102
RTVSPost2010Prop54
  1
strokes_ogs.tif
102
RTVSPost2010PropOp54
 70
     1
102
RTVSPost2010Prop55
280
     0
102
RTVSPost2010PropOp55
 70
     1
102
RTVSPost2010Prop56
140
1.0
102
RTVSPost2010PropOp56
 70
     1
102
RTVSPost2010Prop57
140
1.0
102
RTVSPost2010PropOp57
 70
     1
  0
ENDSEC
  0
EOF
