  0
SECTION
  2
HEADER
  9
$ACADVER
  1
AC1009
  9
$INSBASE
 10
0.0
 20
0.0
 30
0.0
  9
$EXTMIN
 10
87043.446923669486
 20
-1274.816421980554
 30
0.0
  9
$EXTMAX
 10
90797.238923669516
 20
1379.6507780194499
 30
0.0
  9
$LIMMIN
 10
0.0
 20
0.0
  9
$LIMMAX
 10
420.0
 20
300.0
  9
$ORTHOMODE
 70
     0
  9
$REGENMODE
 70
     1
  9
$FILLMODE
 70
     1
  9
$QTEXTMODE
 70
     0
  9
$MIRRTEXT
 70
     1
  9
$DRAGMODE
 70
     2
  9
$LTSCALE
 40
25.0
  9
$OSMODE
 70
    37
  9
$ATTMODE
 70
     1
  9
$TEXTSIZE
 40
50.0
  9
$TRACEWID
 40
0.05
  9
$TEXTSTYLE
  7
STANDARD
  9
$CLAYER
  8
0
  9
$CELTYPE
  6
BYLAYER
  9
$CECOLOR
 62
   256
  9
$DIMSCALE
 40
1.0
  9
$DIMASZ
 40
20.0
  9
$DIMEXO
 40
20.0
  9
$DIMDLI
 40
0.38
  9
$DIMRND
 40
0.0
  9
$DIMDLE
 40
0.0
  9
$DIMEXE
 40
18.0
  9
$DIMTP
 40
0.0
  9
$DIMTM
 40
0.0
  9
$DIMTXT
 40
2.0
  9
$DIMCEN
 40
0.0
  9
$DIMTSZ
 40
0.0
  9
$DIMTOL
 70
     0
  9
$DIMLIM
 70
     0
  9
$DIMTIH
 70
     0
  9
$DIMTOH
 70
     0
  9
$DIMSE1
 70
     0
  9
$DIMSE2
 70
     0
  9
$DIMTAD
 70
     1
  9
$DIMZIN
 70
     0
  9
$DIMBLK
  1
DOT
  9
$DIMASO
 70
     1
  9
$DIMSHO
 70
     1
  9
$DIMPOST
  1

  9
$DIMAPOST
  1

  9
$DIMALT
 70
     0
  9
$DIMALTD
 70
     2
  9
$DIMALTF
 40
25.399999999999999
  9
$DIMLFAC
 40
1.0
  9
$DIMTOFL
 70
     0
  9
$DIMTVP
 40
0.0
  9
$DIMTIX
 70
     0
  9
$DIMSOXD
 70
     0
  9
$DIMSAH
 70
     0
  9
$DIMBLK1
  1

  9
$DIMBLK2
  1

  9
$DIMSTYLE
  2
KOS_CATALOGO
  9
$DIMCLRD
 70
     0
  9
$DIMCLRE
 70
     0
  9
$DIMCLRT
 70
   256
  9
$DIMTFAC
 40
1.0
  9
$DIMGAP
 40
20.0
  9
$LUNITS
 70
     2
  9
$LUPREC
 70
     4
  9
$SKETCHINC
 40
0.1
  9
$FILLETRAD
 40
2.0
  9
$AUNITS
 70
     0
  9
$AUPREC
 70
     0
  9
$MENU
  1
ACAD
  9
$ELEVATION
 40
0.0
  9
$PELEVATION
 40
0.0
  9
$THICKNESS
 40
0.0
  9
$LIMCHECK
 70
     0
  9
$BLIPMODE
 70
     0
  9
$CHAMFERA
 40
0.0
  9
$CHAMFERB
 40
0.0
  9
$SKPOLY
 70
     0
  9
$TDCREATE
 40
2451835.5878652781
  9
$TDUPDATE
 40
2455985.5766070718
  9
$TDINDWG
 40
13.2282874306
  9
$TDUSRTIMER
 40
13.2282874306
  9
$USRTIMER
 70
     1
  9
$ANGBASE
 50
0.0
  9
$ANGDIR
 70
     0
  9
$PDMODE
 70
     0
  9
$PDSIZE
 40
0.0
  9
$PLINEWID
 40
0.0
  9
$COORDS
 70
     1
  9
$SPLFRAME
 70
     0
  9
$SPLINETYPE
 70
     6
  9
$SPLINESEGS
 70
     8
  9
$ATTDIA
 70
     0
  9
$ATTREQ
 70
     1
  9
$HANDLING
 70
     1
  9
$HANDSEED
  5
73121
  9
$SURFTAB1
 70
     6
  9
$SURFTAB2
 70
     6
  9
$SURFTYPE
 70
     6
  9
$SURFU
 70
     6
  9
$SURFV
 70
     6
  9
$UCSNAME
  2

  9
$UCSORG
 10
0.0
 20
0.0
 30
0.0
  9
$UCSXDIR
 10
1.0
 20
0.0
 30
0.0
  9
$UCSYDIR
 10
0.0
 20
1.0
 30
0.0
  9
$PUCSNAME
  2

  9
$PUCSORG
 10
0.0
 20
0.0
 30
0.0
  9
$PUCSXDIR
 10
1.0
 20
0.0
 30
0.0
  9
$PUCSYDIR
 10
0.0
 20
1.0
 30
0.0
  9
$USERI1
 70
     0
  9
$USERI2
 70
     0
  9
$USERI3
 70
     0
  9
$USERI4
 70
     0
  9
$USERI5
 70
     0
  9
$USERR1
 40
0.0
  9
$USERR2
 40
0.0
  9
$USERR3
 40
0.0
  9
$USERR4
 40
0.0
  9
$USERR5
 40
0.0
  9
$WORLDVIEW
 70
     1
  9
$SHADEDGE
 70
     3
  9
$SHADEDIF
 70
    70
  9
$TILEMODE
 70
     1
  9
$MAXACTVP
 70
    16
  9
$PLIMCHECK
 70
     0
  9
$PEXTMIN
 10
1.049999952316284
 20
0.7999999523162842
 30
0.0
  9
$PEXTMAX
 10
9.4499995708465558
 20
7.1999995708465558
 30
0.0
  9
$PLIMMIN
 10
-0.2500002402958907
 20
-0.2499999962453767
  9
$PLIMMAX
 10
10.74999951940821
 20
8.2499997634587316
  9
$UNITMODE
 70
     0
  9
$VISRETAIN
 70
     0
  9
$PLINEGEN
 70
     0
  9
$PSLTSCALE
 70
     1
  0
ENDSEC
  0
SECTION
  2
TABLES
  0
TABLE
  2
VPORT
 70
     1
  0
VPORT
  2
*ACTIVE
 70
     0
 10
0.0
 20
0.0
 11
1.0
 21
1.0
 12
88926.254711491565
 22
52.336627964969921
 13
0.0
 23
0.0
 14
1.0
 24
1.0
 15
0.0
 25
0.0
 16
0.0
 26
0.0
 36
1.0
 17
0.0
 27
0.0
 37
0.0
 40
2672.5097899427278
 41
2.0314606741573029
 42
50.0
 43
0.0
 44
0.0
 50
0.0
 51
0.0
 71
     0
 72
   100
 73
     1
 74
     0
 75
     0
 76
     0
 77
     0
 78
     0
  0
ENDTAB
  0
TABLE
  2
LTYPE
 70
     3
  0
LTYPE
  2
CONTINUOUS
 70
     0
  3
linea continua
 72
    65
 73
     0
 40
0.0
  0
LTYPE
  2
CONTINUA
 70
     0
  3
Linea continua
 72
    65
 73
     0
 40
0.0
  0
LTYPE
  2
TRATTEGGIATA2
 70
     0
  3
Tratteggiata (.5x) _ _ _ _ _ _ _ _ _ _ _ _ _ _ _ _ _
 72
    65
 73
     2
 40
0.375
 49
0.25
 49
-0.125
  0
ENDTAB
  0
TABLE
  2
LAYER
 70
     6
  0
LAYER
  2
0
 70
     0
 62
     7
  6
CONTINUOUS
  0
LAYER
  2
QUOTE
 70
     0
 62
     3
  6
CONTINUOUS
  0
LAYER
  2
DEFPOINTS
 70
     0
 62
     7
  6
CONTINUOUS
  0
LAYER
  2
RIFER
 70
     0
 62
     2
  6
CONTINUA
  0
LAYER
  2
ASHADE
 70
     0
 62
     7
  6
CONTINUOUS
  0
LAYER
  2
PLAC
 70
     0
 62
     2
  6
CONTINUOUS
  0
ENDTAB
  0
TABLE
  2
STYLE
 70
     1
  0
STYLE
  2
STANDARD
 70
     0
 40
50.0
 41
1.0
 50
0.0
 71
     0
 42
50.0
  3
txt
  4

  0
ENDTAB
  0
TABLE
  2
VIEW
 70
     0
  0
ENDTAB
  0
TABLE
  2
UCS
 70
     0
  0
ENDTAB
  0
TABLE
  2
APPID
 70
    17
  0
APPID
  2
ACAD
 70
     0
  0
APPID
  2
AVE_RENDER
 70
     0
  0
APPID
  2
AME_SOL
 70
     0
  0
APPID
  2
ACAD_PSEXT
 70
     0
  0
APPID
  2
ACAD_DSTYLE_DIMJAG
 70
     0
  0
APPID
  2
ACAD_DSTYLE_DIMTALN
 70
     0
  0
APPID
  2
ACAECLAYERSTANDARD
 70
     0
  0
APPID
  2
ACAD_DSTYLE_DIMBREAK
 70
     0
  0
APPID
  2
ACADSTRINGINFO
 70
     0
  0
APPID
  2
ACAD_DSTYLE_DIMJOGGED_JOGA
 70
     0
  0
APPID
  2
GENIUS_GENREC_14
 70
     0
  0
APPID
  2
GENIUS_GENOBJ-N-REC_13
 70
     0
  0
APPID
  2
GENIUS_GENODEF_13
 70
     0
  0
APPID
  2
GENIUS_GENOBJ-N-HTC_13
 70
     0
  0
APPID
  2
GENIUS_GENHATCH_13
 70
     0
  0
APPID
  2
ACAD_DSTYLE_DIMANGULAR_EXT
 70
     0
  0
APPID
  2
ACAD_DSTYLE_DIMRADIAL_EXTENSION
 70
     0
  0
ENDTAB
  0
TABLE
  2
DIMSTYLE
 70
     2
  0
DIMSTYLE
  2
STANDARD
 70
     0
  3

  4

  5

  6

  7

 40
1.0
 41
0.18
 42
0.0625
 43
0.38
 44
0.18
 45
0.0
 46
0.0
 47
0.0
 48
0.0
140
0.18
141
0.09
142
0.0
143
25.399999999999999
144
1.0
145
0.0
146
1.0
147
0.09
 71
     0
 72
     0
 73
     1
 74
     1
 75
     0
 76
     0
 77
     0
 78
     0
170
     0
171
     2
172
     0
173
     0
174
     0
175
     0
176
     0
177
     0
178
     0
  0
DIMSTYLE
  2
KOS_CATALOGO
 70
     0
  3

  4

  5
DOT
  6

  7

 40
1.0
 41
20.0
 42
20.0
 43
0.38
 44
18.0
 45
0.0
 46
0.0
 47
0.0
 48
0.0
140
2.0
141
0.0
142
0.0
143
25.399999999999999
144
1.0
145
0.0
146
1.0
147
20.0
 71
     0
 72
     0
 73
     0
 74
     0
 75
     0
 76
     0
 77
     1
 78
     0
170
     0
171
     2
172
     0
173
     0
174
     0
175
     0
176
     0
177
     0
178
   256
  0
ENDTAB
  0
ENDSEC
  0
SECTION
  2
BLOCKS
  0
BLOCK
  8
0
  2
$MODEL_SPACE
 70
     0
 10
0.0
 20
0.0
 30
0.0
  3
$MODEL_SPACE
  1

  0
ENDBLK
  5
5
  8
0
  0
BLOCK
 67
     1
  8
0
  2
$PAPER_SPACE
 70
     0
 10
0.0
 20
0.0
 30
0.0
  3
$PAPER_SPACE
  1

  0
ENDBLK
  5
7
 67
     1
  8
0
  0
BLOCK
  8
0
  2
GIURI
 70
     0
 10
0.0
 20
0.0
 30
0.0
  3
GIURI
  1

  0
ENDBLK
  5
402E
  8
0
  0
BLOCK
  8
0
  2
AVE_RENDER
 70
     0
 10
0.0
 20
0.0
 30
0.0
  3
AVE_RENDER
  1
AVE_RENDER
  0
ENDBLK
  5
4031
  8
0
  0
BLOCK
  8
0
  2
SIMBOLI
 70
     0
 10
0.0
 20
0.0
 30
0.0
  3
SIMBOLI
  1

  0
INSERT
  5
403F
  8
RIFER
  2
AME_NIL
 10
0.0
 20
0.0
 30
0.0
  0
INSERT
  5
4040
  8
RIFER
  2
AME_SOL
 10
0.0
 20
0.0
 30
0.0
1001
AME_SOL
1000
R2.1
1000
AME2
1000
cm^ 2
1070
     3
1070
     0
1070
     3
1000
wire
1040
45.0
1000
U
1040
1.0
1000
cm
1000
gm
1000
MILD_STEEL
1070
    25
1000
CSG
1070
     1
1070
     3
1070
     3
1070
     3
1070
     1
1000
cm^ 3
1070
    12
1070
     0
1005
403F
  0
ENDBLK
  5
4042
  8
0
  0
BLOCK
  8
0
  2
AME_NIL
 70
     0
 10
0.0
 20
0.0
 30
0.0
  3
AME_NIL
  1
AME_NIL
  0
ENDBLK
  5
4045
  8
0
  0
BLOCK
  8
0
  2
AME_SOL
 70
     0
 10
0.0
 20
0.0
 30
0.0
  3
AME_SOL
  1
AME_SOL
  0
ENDBLK
  5
4048
  8
0
  0
BLOCK
  8
0
  2
_DOT
 70
     0
 10
0.0
 20
0.0
 30
0.0
  3
_DOT
  1

  0
POLYLINE
  5
17A53
  8
0
  6
BYBLOCK
 62
     0
 66
     1
 10
0.0
 20
0.0
 30
0.0
 70
     1
 40
0.5
 41
0.5
  0
VERTEX
  5
7311A
  8
0
  6
BYBLOCK
 62
     0
 10
-0.25
 20
0.0
 30
0.0
 42
1.0
  0
VERTEX
  5
7311B
  8
0
  6
BYBLOCK
 62
     0
 10
0.25
 20
0.0
 30
0.0
 42
1.0
  0
SEQEND
  5
7311C
  8
0
  6
BYBLOCK
 62
     0
  0
LINE
  5
17A54
  8
0
  6
BYBLOCK
 62
     0
 10
-0.5
 20
0.0
 30
0.0
 11
-1.0
 21
0.0
 31
0.0
  0
ENDBLK
  5
17A56
  8
0
  0
ENDSEC
  0
SECTION
  2
ENTITIES
  0
INSERT
  5
7359
  8
0
  2
GIURI
 10
13572.75198030729
 20
5117.9367248833923
 30
0.0
  0
INSERT
  5
735A
  8
0
  2
GIURI
 10
13365.764196525961
 20
5168.4363958357899
 30
0.0
  0
INSERT
  5
735B
  8
ASHADE
 62
     1
  2
AVE_RENDER
 10
12749.21383024896
 20
4541.8324044617138
 30
0.0
1001
AVE_RENDER
1002
{
1070
     2
1000
Pref
1070
    30
1070
    20
1070
     0
1070
     0
1000

1070
    10
1070
     0
1070
    30
1040
1.0
1070
     1
1040
0.3
1040
0.7
1040
0.0
1040
10.0
1010
-1.0
1020
-1.0
1030
-1.0
1040
0.3
1070
    49
1002
}
  0
INSERT
  5
735C
  8
ASHADE
 62
     3
  2
AVE_RENDER
 10
12749.21383024896
 20
4541.8324044617138
 30
0.0
1001
AVE_RENDER
1002
{
1070
     0
1000
Full Opt
1070
     0
1070
     1
1070
     1
1070
     1
1070
     0
1070
     0
1070
     0
1070
     1
1070
     1
1040
0.0001
1040
0.0001
1002
}
  0
INSERT
  5
735D
  8
ASHADE
 62
     4
  2
AVE_RENDER
 10
12749.21383024896
 20
4541.8324044617138
 30
0.0
1001
AVE_RENDER
1002
{
1070
     0
1000
Quick Opt
1070
     0
1070
     1
1070
     1
1070
     1
1070
     0
1070
     0
1070
     1
1002
}
  0
INSERT
  5
735E
  8
0
  2
GIURI
 10
14055.8346444862
 20
6470.8544271320734
 30
0.0
  0
INSERT
  5
735F
  8
0
  2
GIURI
 10
13848.846860704871
 20
6521.3540980844718
 30
0.0
  0
INSERT
  5
7360
  8
PLAC
 62
     1
  2
AVE_RENDER
 10
13305.391242952301
 20
5854.5254818391222
 30
0.0
1001
AVE_RENDER
1002
{
1070
     2
1000
Pref
1070
    30
1070
    20
1070
     0
1070
     0
1000

1070
    10
1070
     0
1070
    30
1040
1.0
1070
     1
1040
0.3
1040
0.7
1040
0.0
1040
10.0
1010
-1.0
1020
-1.0
1030
-1.0
1040
0.3
1070
    49
1002
}
  0
INSERT
  5
7361
  8
PLAC
 62
     3
  2
AVE_RENDER
 10
13305.391242952301
 20
5854.5254818391222
 30
0.0
1001
AVE_RENDER
1002
{
1070
     0
1000
Full Opt
1070
     0
1070
     1
1070
     1
1070
     1
1070
     0
1070
     0
1070
     0
1070
     1
1070
     1
1040
0.0001
1040
0.0001
1002
}
  0
INSERT
  5
7362
  8
PLAC
 62
     4
  2
AVE_RENDER
 10
13305.391242952301
 20
5854.5254818391222
 30
0.0
1001
AVE_RENDER
1002
{
1070
     0
1000
Quick Opt
1070
     0
1070
     1
1070
     1
1070
     1
1070
     0
1070
     0
1070
     1
1002
}
  0
INSERT
  5
7363
  8
ASHADE
 62
     1
  2
AVE_RENDER
 10
14152.3877779713
 20
5688.6206042319027
 30
0.0
1001
AVE_RENDER
1002
{
1070
     2
1000
Pref
1070
    30
1070
    20
1070
     0
1070
     0
1000

1070
    10
1070
     0
1070
    30
1040
1.0
1070
     1
1040
0.3
1040
0.7
1040
0.0
1040
10.0
1010
-1.0
1020
-1.0
1030
-1.0
1040
0.3
1070
    49
1002
}
  0
INSERT
  5
7364
  8
ASHADE
 62
     3
  2
AVE_RENDER
 10
14152.3877779713
 20
5688.6206042319027
 30
0.0
1001
AVE_RENDER
1002
{
1070
     0
1000
Full Opt
1070
     0
1070
     1
1070
     1
1070
     1
1070
     0
1070
     0
1070
     0
1070
     1
1070
     1
1040
0.0001
1040
0.0001
1002
}
  0
INSERT
  5
7365
  8
ASHADE
 62
     4
  2
AVE_RENDER
 10
14152.3877779713
 20
5688.6206042319027
 30
0.0
1001
AVE_RENDER
1002
{
1070
     0
1000
Quick Opt
1070
     0
1070
     1
1070
     1
1070
     1
1070
     0
1070
     0
1070
     1
1002
}
  0
INSERT
  5
7366
  8
PLAC
 62
     1
  2
AVE_RENDER
 10
13194.999066144241
 20
5971.6689888927622
 30
0.0
1001
AVE_RENDER
1002
{
1070
     2
1000
Pref
1070
    30
1070
    20
1070
     0
1070
     0
1000

1070
    10
1070
     0
1070
    30
1040
1.0
1070
     1
1040
0.3
1040
0.7
1040
0.0
1040
10.0
1010
-1.0
1020
-1.0
1030
-1.0
1040
0.3
1070
    49
1002
}
  0
INSERT
  5
7367
  8
PLAC
 62
     3
  2
AVE_RENDER
 10
13194.999066144241
 20
5971.6689888927622
 30
0.0
1001
AVE_RENDER
1002
{
1070
     0
1000
Full Opt
1070
     0
1070
     1
1070
     1
1070
     1
1070
     0
1070
     0
1070
     0
1070
     1
1070
     1
1040
0.0001
1040
0.0001
1002
}
  0
INSERT
  5
7368
  8
PLAC
 62
     4
  2
AVE_RENDER
 10
13194.999066144241
 20
5971.6689888927622
 30
0.0
1001
AVE_RENDER
1002
{
1070
     0
1000
Quick Opt
1070
     0
1070
     1
1070
     1
1070
     1
1070
     0
1070
     0
1070
     1
1002
}
  0
INSERT
  5
7369
  8
ASHADE
 62
     1
  2
AVE_RENDER
 10
13757.65646983851
 20
5805.5662480891879
 30
0.0
1001
AVE_RENDER
1002
{
1070
     2
1000
Pref
1070
    30
1070
    20
1070
     0
1070
     0
1000

1070
    10
1070
     0
1070
    30
1040
1.0
1070
     1
1040
0.3
1040
0.7
1040
0.0
1040
10.0
1010
-1.0
1020
-1.0
1030
-1.0
1040
0.3
1070
    49
1002
}
  0
INSERT
  5
736A
  8
ASHADE
 62
     3
  2
AVE_RENDER
 10
13757.65646983851
 20
5805.5662480891879
 30
0.0
1001
AVE_RENDER
1002
{
1070
     0
1000
Full Opt
1070
     0
1070
     1
1070
     1
1070
     1
1070
     0
1070
     0
1070
     0
1070
     1
1070
     1
1040
0.0001
1040
0.0001
1002
}
  0
INSERT
  5
736B
  8
ASHADE
 62
     4
  2
AVE_RENDER
 10
13757.65646983851
 20
5805.5662480891879
 30
0.0
1001
AVE_RENDER
1002
{
1070
     0
1000
Quick Opt
1070
     0
1070
     1
1070
     1
1070
     1
1070
     0
1070
     0
1070
     1
1002
}
  0
INSERT
  5
736C
  8
0
  2
GIURI
 10
11116.81847807799
 20
6031.4605725529937
 30
0.0
 50
270.0
  0
INSERT
  5
736D
  8
0
  2
GIURI
 10
11167.31814903039
 20
6238.448356334321
 30
0.0
 50
270.0
  0
INSERT
  5
736E
  8
0
  2
GIURI
 10
10930.19847209607
 20
6584.6810539287771
 30
0.0
 50
270.0
  0
INSERT
  5
736F
  8
0
  2
GIURI
 10
10980.69814304847
 20
6791.6688377101054
 30
0.0
 50
270.0
  0
INSERT
  5
7370
  8
0
  2
GIURI
 10
11161.74854419395
 20
6145.6800400546272
 30
0.0
 50
270.0
  0
INSERT
  5
7371
  8
0
  2
GIURI
 10
11212.248215146359
 20
6352.6678238359536
 30
0.0
 50
270.0
  0
INSERT
  5
7372
  8
0
  2
GIURI
 10
10975.12853821204
 20
6698.9005214304098
 30
0.0
 50
270.0
  0
INSERT
  5
7373
  8
0
  2
GIURI
 10
11025.628209164441
 20
6905.8883052117362
 30
0.0
 50
270.0
  0
INSERT
  5
7374
  8
0
  2
GIURI
 10
10444.746698571649
 20
7202.4100167266042
 30
0.0
 50
270.0
  0
INSERT
  5
7375
  8
0
  2
GIURI
 10
10495.246369524049
 20
7409.3978005079316
 30
0.0
 50
270.0
  0
INSERT
  5
7376
  8
0
  2
GIURI
 10
10258.12669258974
 20
7755.6304981023877
 30
0.0
 50
270.0
  0
INSERT
  5
7377
  8
0
  2
GIURI
 10
10308.62636354214
 20
7962.6182818837151
 30
0.0
 50
270.0
  0
INSERT
  5
7378
  8
0
  2
GIURI
 10
9505.2063123427179
 20
6778.4356044031492
 30
0.0
 50
270.0
  0
INSERT
  5
7379
  8
0
  2
GIURI
 10
9555.7059832951163
 20
6985.4233881844757
 30
0.0
 50
270.0
  0
INSERT
  5
737A
  8
0
  2
GIURI
 10
9272.7142543780428
 20
7257.6658055851731
 30
0.0
 50
270.0
  0
INSERT
  5
737B
  8
0
  2
GIURI
 10
9323.2139253304395
 20
7464.6535893664995
 30
0.0
 50
270.0
  0
INSERT
  5
737C
  8
0
  2
GIURI
 10
9432.2327759354994
 20
6496.8928230270312
 30
0.0
 50
270.0
  0
INSERT
  5
737D
  8
0
  2
GIURI
 10
9482.7324468878996
 20
6703.8806068083577
 30
0.0
 50
270.0
  0
INSERT
  5
737E
  8
0
  2
GIURI
 10
10690.60037991645
 20
6734.424294519371
 30
0.0
 50
270.0
  0
INSERT
  5
737F
  8
0
  2
GIURI
 10
10741.10005086885
 20
6941.4120783006992
 30
0.0
 50
270.0
  0
INSERT
  5
7380
  8
0
  2
GIURI
 10
10458.10832195177
 20
7213.6544957013948
 30
0.0
 50
270.0
  0
INSERT
  5
7381
  8
0
  2
GIURI
 10
10508.60799290417
 20
7420.6422794827222
 30
0.0
 50
270.0
  0
INSERT
  5
7382
  8
0
  2
GIURI
 10
11124.46218812179
 20
8222.8987344512025
 30
0.0
  0
INSERT
  5
7383
  8
0
  2
GIURI
 10
10917.474404340461
 20
8273.3984054036027
 30
0.0
  0
INSERT
  5
7384
  8
ASHADE
 62
     1
  2
AVE_RENDER
 10
10900.6135859803
 20
5731.8033475185821
 30
0.0
1001
AVE_RENDER
1002
{
1070
     2
1000
Pref
1070
    30
1070
    20
1070
     0
1070
     0
1000

1070
    10
1070
     0
1070
    30
1040
1.0
1070
     1
1040
0.3
1040
0.7
1040
0.0
1040
10.0
1010
-1.0
1020
-1.0
1030
-1.0
1040
0.3
1070
    49
1002
}
  0
INSERT
  5
7385
  8
ASHADE
 62
     3
  2
AVE_RENDER
 10
10900.6135859803
 20
5731.8033475185821
 30
0.0
1001
AVE_RENDER
1002
{
1070
     0
1000
Full Opt
1070
     0
1070
     1
1070
     1
1070
     1
1070
     0
1070
     0
1070
     0
1070
     1
1070
     1
1040
0.0001
1040
0.0001
1002
}
  0
INSERT
  5
7386
  8
ASHADE
 62
     4
  2
AVE_RENDER
 10
10900.6135859803
 20
5731.8033475185821
 30
0.0
1001
AVE_RENDER
1002
{
1070
     0
1000
Quick Opt
1070
     0
1070
     1
1070
     1
1070
     1
1070
     0
1070
     0
1070
     1
1002
}
  0
INSERT
  5
7387
  8
ASHADE
 62
     1
  2
AVE_RENDER
 10
10933.647961321331
 20
7324.9022745815846
 30
0.0
1001
AVE_RENDER
1002
{
1070
     2
1000
Pref
1070
    30
1070
    20
1070
     0
1070
     0
1000

1070
    10
1070
     0
1070
    30
1040
1.0
1070
     1
1040
0.3
1040
0.7
1040
0.0
1040
10.0
1010
-1.0
1020
-1.0
1030
-1.0
1040
0.3
1070
    49
1002
}
  0
INSERT
  5
7388
  8
ASHADE
 62
     3
  2
AVE_RENDER
 10
10933.647961321331
 20
7324.9022745815846
 30
0.0
1001
AVE_RENDER
1002
{
1070
     0
1000
Full Opt
1070
     0
1070
     1
1070
     1
1070
     1
1070
     0
1070
     0
1070
     0
1070
     1
1070
     1
1040
0.0001
1040
0.0001
1002
}
  0
INSERT
  5
7389
  8
ASHADE
 62
     4
  2
AVE_RENDER
 10
10933.647961321331
 20
7324.9022745815846
 30
0.0
1001
AVE_RENDER
1002
{
1070
     0
1000
Quick Opt
1070
     0
1070
     1
1070
     1
1070
     1
1070
     0
1070
     0
1070
     1
1002
}
  0
INSERT
  5
738A
  8
ASHADE
 62
     1
  2
AVE_RENDER
 10
12319.993189306169
 20
1635.532930218254
 30
0.0
1001
AVE_RENDER
1002
{
1070
     2
1000
Pref
1070
    30
1070
    20
1070
     0
1070
     0
1000

1070
    10
1070
     0
1070
    30
1040
1.0
1070
     1
1040
0.3
1040
0.7
1040
0.0
1040
10.0
1010
-1.0
1020
-1.0
1030
-1.0
1040
0.3
1070
    49
1002
}
  0
INSERT
  5
738B
  8
ASHADE
 62
     3
  2
AVE_RENDER
 10
12319.993189306169
 20
1635.532930218254
 30
0.0
1001
AVE_RENDER
1002
{
1070
     0
1000
Full Opt
1070
     0
1070
     1
1070
     1
1070
     1
1070
     0
1070
     0
1070
     0
1070
     1
1070
     1
1040
0.0001
1040
0.0001
1002
}
  0
INSERT
  5
738C
  8
ASHADE
 62
     4
  2
AVE_RENDER
 10
12319.993189306169
 20
1635.532930218254
 30
0.0
1001
AVE_RENDER
1002
{
1070
     0
1000
Quick Opt
1070
     0
1070
     1
1070
     1
1070
     1
1070
     0
1070
     0
1070
     1
1002
}
  0
INSERT
  5
738D
  8
ASHADE
 62
     1
  2
AVE_RENDER
 10
8413.2116238658382
 20
6269.4998340379871
 30
0.0
1001
AVE_RENDER
1002
{
1070
     2
1000
Pref
1070
    30
1070
    20
1070
     0
1070
     0
1000

1070
    10
1070
     0
1070
    30
1040
1.0
1070
     1
1040
0.3
1040
0.7
1040
0.0
1040
10.0
1010
-1.0
1020
-1.0
1030
-1.0
1040
0.3
1070
    49
1002
}
  0
INSERT
  5
738E
  8
ASHADE
 62
     3
  2
AVE_RENDER
 10
8413.2116238658382
 20
6269.4998340379871
 30
0.0
1001
AVE_RENDER
1002
{
1070
     0
1000
Full Opt
1070
     0
1070
     1
1070
     1
1070
     1
1070
     0
1070
     0
1070
     0
1070
     1
1070
     1
1040
0.0001
1040
0.0001
1002
}
  0
INSERT
  5
738F
  8
ASHADE
 62
     4
  2
AVE_RENDER
 10
8413.2116238658382
 20
6269.4998340379871
 30
0.0
1001
AVE_RENDER
1002
{
1070
     0
1000
Quick Opt
1070
     0
1070
     1
1070
     1
1070
     1
1070
     0
1070
     0
1070
     1
1002
}
  0
INSERT
  5
7390
  8
ASHADE
 62
     1
  2
AVE_RENDER
 10
8340.7880533954667
 20
7166.5752790718989
 30
0.0
1001
AVE_RENDER
1002
{
1070
     2
1000
Pref
1070
    30
1070
    20
1070
     0
1070
     0
1000

1070
    10
1070
     0
1070
    30
1040
1.0
1070
     1
1040
0.3
1040
0.7
1040
0.0
1040
10.0
1010
-1.0
1020
-1.0
1030
-1.0
1040
0.3
1070
    49
1002
}
  0
INSERT
  5
7391
  8
ASHADE
 62
     3
  2
AVE_RENDER
 10
8340.7880533954667
 20
7166.5752790718989
 30
0.0
1001
AVE_RENDER
1002
{
1070
     0
1000
Full Opt
1070
     0
1070
     1
1070
     1
1070
     1
1070
     0
1070
     0
1070
     0
1070
     1
1070
     1
1040
0.0001
1040
0.0001
1002
}
  0
INSERT
  5
7392
  8
ASHADE
 62
     4
  2
AVE_RENDER
 10
8340.7880533954667
 20
7166.5752790718989
 30
0.0
1001
AVE_RENDER
1002
{
1070
     0
1000
Quick Opt
1070
     0
1070
     1
1070
     1
1070
     1
1070
     0
1070
     0
1070
     1
1002
}
  0
INSERT
  5
7393
  8
0
  2
SIMBOLI
 10
8964.9793325666196
 20
7706.3794673408447
 30
0.0
  0
INSERT
  5
7394
  8
ASHADE
 62
     1
  2
AVE_RENDER
 10
9514.8863778991563
 20
7810.4152964387831
 30
0.0
1001
AVE_RENDER
1002
{
1070
     2
1000
Pref
1070
    30
1070
    20
1070
     0
1070
     0
1000

1070
    10
1070
     0
1070
    30
1040
1.0
1070
     1
1040
0.3
1040
0.7
1040
0.0
1040
10.0
1010
-1.0
1020
-1.0
1030
-1.0
1040
0.3
1070
    49
1002
}
  0
INSERT
  5
7395
  8
ASHADE
 62
     3
  2
AVE_RENDER
 10
9514.8863778991563
 20
7810.4152964387831
 30
0.0
1001
AVE_RENDER
1002
{
1070
     0
1000
Full Opt
1070
     0
1070
     1
1070
     1
1070
     1
1070
     0
1070
     0
1070
     0
1070
     1
1070
     1
1040
0.0001
1040
0.0001
1002
}
  0
INSERT
  5
7396
  8
ASHADE
 62
     4
  2
AVE_RENDER
 10
9514.8863778991563
 20
7810.4152964387831
 30
0.0
1001
AVE_RENDER
1002
{
1070
     0
1000
Quick Opt
1070
     0
1070
     1
1070
     1
1070
     1
1070
     0
1070
     0
1070
     1
1002
}
  0
INSERT
  5
7397
  8
0
  2
SIMBOLI
 10
10139.077657070309
 20
8350.2194847077299
 30
0.0
  0
INSERT
  5
7398
  8
ASHADE
 62
     1
  2
AVE_RENDER
 10
9001.1356261797955
 20
8057.2907489004747
 30
0.0
1001
AVE_RENDER
1002
{
1070
     2
1000
Pref
1070
    30
1070
    20
1070
     0
1070
     0
1000

1070
    10
1070
     0
1070
    30
1040
1.0
1070
     1
1040
0.3
1040
0.7
1040
0.0
1040
10.0
1010
-1.0
1020
-1.0
1030
-1.0
1040
0.3
1070
    49
1002
}
  0
INSERT
  5
7399
  8
ASHADE
 62
     3
  2
AVE_RENDER
 10
9001.1356261797955
 20
8057.2907489004747
 30
0.0
1001
AVE_RENDER
1002
{
1070
     0
1000
Full Opt
1070
     0
1070
     1
1070
     1
1070
     1
1070
     0
1070
     0
1070
     0
1070
     1
1070
     1
1040
0.0001
1040
0.0001
1002
}
  0
INSERT
  5
739A
  8
ASHADE
 62
     4
  2
AVE_RENDER
 10
9001.1356261797955
 20
8057.2907489004747
 30
0.0
1001
AVE_RENDER
1002
{
1070
     0
1000
Quick Opt
1070
     0
1070
     1
1070
     1
1070
     1
1070
     0
1070
     0
1070
     1
1002
}
  0
INSERT
  5
739B
  8
0
  2
SIMBOLI
 10
9625.3269053509503
 20
8597.0949371694223
 30
0.0
  0
INSERT
  5
73F0
  8
0
  2
GIURI
 10
12062.932166735371
 20
5919.9850571705374
 30
0.0
 50
270.0
  0
INSERT
  5
73F1
  8
0
  2
GIURI
 10
12113.431837687771
 20
6126.9728409518639
 30
0.0
 50
270.0
  0
INSERT
  5
73F2
  8
0
  2
GIURI
 10
11876.31216075345
 20
6473.20553854632
 30
0.0
 50
270.0
  0
INSERT
  5
73F3
  8
0
  2
GIURI
 10
11926.81183170586
 20
6680.1933223276483
 30
0.0
 50
270.0
  0
INSERT
  5
73F4
  8
0
  2
GIURI
 10
12107.862232851339
 20
6034.2045246721691
 30
0.0
 50
270.0
  0
INSERT
  5
73F5
  8
0
  2
GIURI
 10
12158.36190380374
 20
6241.1923084534974
 30
0.0
 50
270.0
  0
INSERT
  5
73F6
  8
0
  2
GIURI
 10
11921.242226869421
 20
6587.4250060479517
 30
0.0
 50
270.0
  0
INSERT
  5
73F7
  8
0
  2
GIURI
 10
11971.741897821819
 20
6794.41278982928
 30
0.0
 50
270.0
  0
INSERT
  5
73F8
  8
0
  2
GIURI
 10
11390.86038722904
 20
7090.9345013441471
 30
0.0
 50
270.0
  0
INSERT
  5
73F9
  8
0
  2
GIURI
 10
11441.360058181441
 20
7297.9222851254754
 30
0.0
 50
270.0
  0
INSERT
  5
73FA
  8
0
  2
GIURI
 10
11204.24038124712
 20
7644.1549827199306
 30
0.0
 50
270.0
  0
INSERT
  5
73FB
  8
0
  2
GIURI
 10
11254.740052199521
 20
7851.1427665012579
 30
0.0
 50
270.0
  0
INSERT
  5
73FC
  8
0
  2
GIURI
 10
10451.3200010001
 20
6666.9600890206902
 30
0.0
 50
270.0
  0
INSERT
  5
73FD
  8
0
  2
GIURI
 10
10501.8196719525
 20
6873.9478728020194
 30
0.0
 50
270.0
  0
INSERT
  5
73FE
  8
0
  2
GIURI
 10
10218.82794303542
 20
7146.190290202715
 30
0.0
 50
270.0
  0
INSERT
  5
73FF
  8
0
  2
GIURI
 10
10269.32761398782
 20
7353.1780739840406
 30
0.0
 50
270.0
  0
INSERT
  5
7400
  8
0
  2
GIURI
 10
10378.34646459288
 20
6385.4173076445741
 30
0.0
 50
270.0
  0
INSERT
  5
7401
  8
0
  2
GIURI
 10
10428.84613554528
 20
6592.4050914259014
 30
0.0
 50
270.0
  0
INSERT
  5
7402
  8
0
  2
GIURI
 10
11636.71406857383
 20
6622.9487791369147
 30
0.0
 50
270.0
  0
INSERT
  5
7403
  8
0
  2
GIURI
 10
11687.213739526231
 20
6829.9365629182412
 30
0.0
 50
270.0
  0
INSERT
  5
7404
  8
0
  2
GIURI
 10
11404.222010609161
 20
7102.1789803189376
 30
0.0
 50
270.0
  0
INSERT
  5
7405
  8
0
  2
GIURI
 10
11454.72168156155
 20
7309.1667641002659
 30
0.0
 50
270.0
  0
INSERT
  5
7406
  8
0
  2
GIURI
 10
12070.575876779179
 20
8111.4232190687426
 30
0.0
  0
INSERT
  5
7407
  8
0
  2
GIURI
 10
11863.58809299785
 20
8161.9228900211428
 30
0.0
  0
INSERT
  5
7408
  8
ASHADE
 62
     1
  2
AVE_RENDER
 10
11846.727274637689
 20
5620.3278321361231
 30
0.0
1001
AVE_RENDER
1002
{
1070
     2
1000
Pref
1070
    30
1070
    20
1070
     0
1070
     0
1000

1070
    10
1070
     0
1070
    30
1040
1.0
1070
     1
1040
0.3
1040
0.7
1040
0.0
1040
10.0
1010
-1.0
1020
-1.0
1030
-1.0
1040
0.3
1070
    49
1002
}
  0
INSERT
  5
7409
  8
ASHADE
 62
     3
  2
AVE_RENDER
 10
11846.727274637689
 20
5620.3278321361231
 30
0.0
1001
AVE_RENDER
1002
{
1070
     0
1000
Full Opt
1070
     0
1070
     1
1070
     1
1070
     1
1070
     0
1070
     0
1070
     0
1070
     1
1070
     1
1040
0.0001
1040
0.0001
1002
}
  0
INSERT
  5
740A
  8
ASHADE
 62
     4
  2
AVE_RENDER
 10
11846.727274637689
 20
5620.3278321361231
 30
0.0
1001
AVE_RENDER
1002
{
1070
     0
1000
Quick Opt
1070
     0
1070
     1
1070
     1
1070
     1
1070
     0
1070
     0
1070
     1
1002
}
  0
INSERT
  5
740B
  8
ASHADE
 62
     1
  2
AVE_RENDER
 10
11879.76164997872
 20
7213.4267591991256
 30
0.0
1001
AVE_RENDER
1002
{
1070
     2
1000
Pref
1070
    30
1070
    20
1070
     0
1070
     0
1000

1070
    10
1070
     0
1070
    30
1040
1.0
1070
     1
1040
0.3
1040
0.7
1040
0.0
1040
10.0
1010
-1.0
1020
-1.0
1030
-1.0
1040
0.3
1070
    49
1002
}
  0
INSERT
  5
740C
  8
ASHADE
 62
     3
  2
AVE_RENDER
 10
11879.76164997872
 20
7213.4267591991256
 30
0.0
1001
AVE_RENDER
1002
{
1070
     0
1000
Full Opt
1070
     0
1070
     1
1070
     1
1070
     1
1070
     0
1070
     0
1070
     0
1070
     1
1070
     1
1040
0.0001
1040
0.0001
1002
}
  0
INSERT
  5
740D
  8
ASHADE
 62
     4
  2
AVE_RENDER
 10
11879.76164997872
 20
7213.4267591991256
 30
0.0
1001
AVE_RENDER
1002
{
1070
     0
1000
Quick Opt
1070
     0
1070
     1
1070
     1
1070
     1
1070
     0
1070
     0
1070
     1
1002
}
  0
INSERT
  5
740E
  8
ASHADE
 62
     1
  2
AVE_RENDER
 10
13266.106877963561
 20
1524.057414835796
 30
0.0
1001
AVE_RENDER
1002
{
1070
     2
1000
Pref
1070
    30
1070
    20
1070
     0
1070
     0
1000

1070
    10
1070
     0
1070
    30
1040
1.0
1070
     1
1040
0.3
1040
0.7
1040
0.0
1040
10.0
1010
-1.0
1020
-1.0
1030
-1.0
1040
0.3
1070
    49
1002
}
  0
INSERT
  5
740F
  8
ASHADE
 62
     3
  2
AVE_RENDER
 10
13266.106877963561
 20
1524.057414835796
 30
0.0
1001
AVE_RENDER
1002
{
1070
     0
1000
Full Opt
1070
     0
1070
     1
1070
     1
1070
     1
1070
     0
1070
     0
1070
     0
1070
     1
1070
     1
1040
0.0001
1040
0.0001
1002
}
  0
INSERT
  5
7410
  8
ASHADE
 62
     4
  2
AVE_RENDER
 10
13266.106877963561
 20
1524.057414835796
 30
0.0
1001
AVE_RENDER
1002
{
1070
     0
1000
Quick Opt
1070
     0
1070
     1
1070
     1
1070
     1
1070
     0
1070
     0
1070
     1
1002
}
  0
INSERT
  5
7411
  8
ASHADE
 62
     1
  2
AVE_RENDER
 10
9359.3253125232222
 20
6158.0243186555299
 30
0.0
1001
AVE_RENDER
1002
{
1070
     2
1000
Pref
1070
    30
1070
    20
1070
     0
1070
     0
1000

1070
    10
1070
     0
1070
    30
1040
1.0
1070
     1
1040
0.3
1040
0.7
1040
0.0
1040
10.0
1010
-1.0
1020
-1.0
1030
-1.0
1040
0.3
1070
    49
1002
}
  0
INSERT
  5
7412
  8
ASHADE
 62
     3
  2
AVE_RENDER
 10
9359.3253125232222
 20
6158.0243186555299
 30
0.0
1001
AVE_RENDER
1002
{
1070
     0
1000
Full Opt
1070
     0
1070
     1
1070
     1
1070
     1
1070
     0
1070
     0
1070
     0
1070
     1
1070
     1
1040
0.0001
1040
0.0001
1002
}
  0
INSERT
  5
7413
  8
ASHADE
 62
     4
  2
AVE_RENDER
 10
9359.3253125232222
 20
6158.0243186555299
 30
0.0
1001
AVE_RENDER
1002
{
1070
     0
1000
Quick Opt
1070
     0
1070
     1
1070
     1
1070
     1
1070
     0
1070
     0
1070
     1
1002
}
  0
INSERT
  5
7414
  8
ASHADE
 62
     1
  2
AVE_RENDER
 10
9286.9017420528508
 20
7055.0997636894399
 30
0.0
1001
AVE_RENDER
1002
{
1070
     2
1000
Pref
1070
    30
1070
    20
1070
     0
1070
     0
1000

1070
    10
1070
     0
1070
    30
1040
1.0
1070
     1
1040
0.3
1040
0.7
1040
0.0
1040
10.0
1010
-1.0
1020
-1.0
1030
-1.0
1040
0.3
1070
    49
1002
}
  0
INSERT
  5
7415
  8
ASHADE
 62
     3
  2
AVE_RENDER
 10
9286.9017420528508
 20
7055.0997636894399
 30
0.0
1001
AVE_RENDER
1002
{
1070
     0
1000
Full Opt
1070
     0
1070
     1
1070
     1
1070
     1
1070
     0
1070
     0
1070
     0
1070
     1
1070
     1
1040
0.0001
1040
0.0001
1002
}
  0
INSERT
  5
7416
  8
ASHADE
 62
     4
  2
AVE_RENDER
 10
9286.9017420528508
 20
7055.0997636894399
 30
0.0
1001
AVE_RENDER
1002
{
1070
     0
1000
Quick Opt
1070
     0
1070
     1
1070
     1
1070
     1
1070
     0
1070
     0
1070
     1
1002
}
  0
INSERT
  5
7417
  8
0
  2
SIMBOLI
 10
9911.0930212240055
 20
7594.9039519583876
 30
0.0
  0
INSERT
  5
7418
  8
ASHADE
 62
     1
  2
AVE_RENDER
 10
10461.00006655654
 20
7698.9397810563278
 30
0.0
1001
AVE_RENDER
1002
{
1070
     2
1000
Pref
1070
    30
1070
    20
1070
     0
1070
     0
1000

1070
    10
1070
     0
1070
    30
1040
1.0
1070
     1
1040
0.3
1040
0.7
1040
0.0
1040
10.0
1010
-1.0
1020
-1.0
1030
-1.0
1040
0.3
1070
    49
1002
}
  0
INSERT
  5
7419
  8
ASHADE
 62
     3
  2
AVE_RENDER
 10
10461.00006655654
 20
7698.9397810563278
 30
0.0
1001
AVE_RENDER
1002
{
1070
     0
1000
Full Opt
1070
     0
1070
     1
1070
     1
1070
     1
1070
     0
1070
     0
1070
     0
1070
     1
1070
     1
1040
0.0001
1040
0.0001
1002
}
  0
INSERT
  5
741A
  8
ASHADE
 62
     4
  2
AVE_RENDER
 10
10461.00006655654
 20
7698.9397810563278
 30
0.0
1001
AVE_RENDER
1002
{
1070
     0
1000
Quick Opt
1070
     0
1070
     1
1070
     1
1070
     1
1070
     0
1070
     0
1070
     1
1002
}
  0
INSERT
  5
741B
  8
0
  2
SIMBOLI
 10
11085.191345727701
 20
8238.7439693252727
 30
0.0
  0
INSERT
  5
741C
  8
ASHADE
 62
     1
  2
AVE_RENDER
 10
9947.2493148371796
 20
7945.8152335180202
 30
0.0
1001
AVE_RENDER
1002
{
1070
     2
1000
Pref
1070
    30
1070
    20
1070
     0
1070
     0
1000

1070
    10
1070
     0
1070
    30
1040
1.0
1070
     1
1040
0.3
1040
0.7
1040
0.0
1040
10.0
1010
-1.0
1020
-1.0
1030
-1.0
1040
0.3
1070
    49
1002
}
  0
INSERT
  5
741D
  8
ASHADE
 62
     3
  2
AVE_RENDER
 10
9947.2493148371796
 20
7945.8152335180202
 30
0.0
1001
AVE_RENDER
1002
{
1070
     0
1000
Full Opt
1070
     0
1070
     1
1070
     1
1070
     1
1070
     0
1070
     0
1070
     0
1070
     1
1070
     1
1040
0.0001
1040
0.0001
1002
}
  0
INSERT
  5
741E
  8
ASHADE
 62
     4
  2
AVE_RENDER
 10
9947.2493148371796
 20
7945.8152335180202
 30
0.0
1001
AVE_RENDER
1002
{
1070
     0
1000
Quick Opt
1070
     0
1070
     1
1070
     1
1070
     1
1070
     0
1070
     0
1070
     1
1002
}
  0
INSERT
  5
741F
  8
0
  2
SIMBOLI
 10
10571.440594008331
 20
8485.6194217869615
 30
0.0
  0
CIRCLE
  5
645DE
  8
0
 10
88285.464801007605
 20
-740.3182232009367
 30
0.0
 40
209.09353411161129
  0
CIRCLE
  5
645DF
  8
RIFER
 10
88285.464801007605
 20
-740.3182232009367
 30
0.0
 40
113.3800527240693
  0
ARC
  5
645E0
  8
0
 10
88155.464801007955
 20
52.39555402239602
 30
0.0
 40
8.0000000000000018
 50
90.0
 51
270.0
  0
LINE
  5
645E1
  8
0
 10
88185.464801007955
 20
44.395554022386932
 30
0.0
 11
88185.464801007955
 21
60.395554022386932
 31
0.0
  0
LINE
  5
645E2
  8
0
 10
88385.464801007955
 20
44.395554022386932
 30
0.0
 11
88385.464801007955
 21
60.395554022386932
 31
0.0
  0
ARC
  5
645E3
  8
0
 10
88415.464801007955
 20
52.39555402239602
 30
0.0
 40
8.0000000000000018
 50
270.0
 51
90.0
  0
LINE
  5
645E4
  8
0
 10
88293.464801007955
 20
493.18324567764643
 30
0.0
 11
88293.464801007955
 21
60.39555402246333
 31
0.0
  0
LINE
  5
645E5
  8
0
 10
88277.464801007955
 20
493.18324567764643
 30
0.0
 11
88277.464801007955
 21
60.39555402246333
 31
0.0
  0
LINE
  5
645E6
  8
0
 10
88155.464801007955
 20
44.39555402239602
 30
0.0
 11
88185.464801007955
 21
44.395554022386932
 31
0.0
  0
LINE
  5
645E7
  8
0
 10
88185.464801007955
 20
60.395554022386932
 30
0.0
 11
88155.464801007955
 21
60.395554022396027
 31
0.0
  0
LINE
  5
645E8
  8
0
 10
88385.464801007955
 20
44.395554022386932
 30
0.0
 11
88185.464801007955
 21
44.395554022386932
 31
0.0
  0
LINE
  5
645E9
  8
0
 10
88385.464801007955
 20
60.395554022386932
 30
0.0
 11
88185.464801007955
 21
60.395554022386932
 31
0.0
  0
LINE
  5
645EA
  8
0
 10
88385.464801007955
 20
44.395554022386932
 30
0.0
 11
88415.464801007955
 21
44.39555402239602
 31
0.0
  0
LINE
  5
645EB
  8
0
 10
88415.464801007955
 20
60.395554022396027
 30
0.0
 11
88385.464801007955
 21
60.395554022386932
 31
0.0
  0
LINE
  5
645EC
  8
0
 10
88279.464801007955
 20
533.18324567764648
 30
0.0
 11
88279.464801007955
 21
802.39555402239603
 31
0.0
  0
LINE
  5
645ED
  8
0
 10
88291.464801007955
 20
533.18324567764648
 30
0.0
 11
88291.464801007955
 21
802.39555402239603
 31
0.0
  0
LINE
  5
645EE
  8
0
 10
88273.464801007955
 20
533.18324567764648
 30
0.0
 11
88297.464801007955
 21
533.18324567764648
 31
0.0
  0
LINE
  5
645EF
  8
0
 10
88297.464801007955
 20
493.18324567764643
 30
0.0
 11
88273.464801007955
 21
493.18324567764643
 31
0.0
  0
LINE
  5
645F0
  8
0
 10
88297.464801007955
 20
533.18324567764648
 30
0.0
 11
88297.964801007955
 21
532.68324567764648
 31
0.0
  0
LINE
  5
645F1
  8
0
 10
88273.464801007955
 20
533.18324567764648
 30
0.0
 11
88272.964801007955
 21
532.68324567764648
 31
0.0
  0
LINE
  5
645F2
  8
0
 10
88273.464801007955
 20
493.18324567764643
 30
0.0
 11
88272.964801007955
 21
493.68324567764643
 31
0.0
  0
LINE
  5
645F3
  8
0
 10
88297.464801007955
 20
493.18324567764643
 30
0.0
 11
88297.964801007955
 21
493.68324567764643
 31
0.0
  0
LINE
  5
645F4
  8
0
 10
88297.964801007955
 20
532.68324567764648
 30
0.0
 11
88297.964801007955
 21
493.68324567764643
 31
0.0
  0
LINE
  5
645F5
  8
0
 10
88272.964801007955
 20
532.68324567764648
 30
0.0
 11
88272.964801007955
 21
493.68324567764643
 31
0.0
  0
LINE
  5
645F6
  8
0
 10
88415.464801007955
 20
44.395554022397839
 30
0.0
 11
88421.464801007955
 21
44.395554022399672
 31
0.0
  0
LINE
  5
645F7
  8
0
 10
88409.464801007955
 20
40.395554022399658
 30
0.0
 11
88421.464801007955
 21
40.395554022399658
 31
0.0
  0
LINE
  5
645F8
  8
0
 10
88418.46480100794
 20
44.979355535304407
 30
0.0
 11
88418.46480100794
 21
44.395554022399672
 31
0.0
  0
LINE
  5
645F9
  8
0
 10
88421.464801007955
 20
44.395554022399672
 30
0.0
 11
88421.464801007955
 21
40.395554022399658
 31
0.0
  0
LINE
  5
645FA
  8
0
 10
88409.464801007955
 20
44.395554022399672
 30
0.0
 11
88409.464801007955
 21
40.395554022399658
 31
0.0
  0
LINE
  5
645FB
  8
0
 10
88149.464801007955
 20
44.395554022399672
 30
0.0
 11
88155.464801007955
 21
44.395554022397839
 31
0.0
  0
LINE
  5
645FC
  8
0
 10
88149.464801007955
 20
40.395554022399658
 30
0.0
 11
88161.464801007955
 21
40.395554022399658
 31
0.0
  0
LINE
  5
645FD
  8
0
 10
88152.464801007955
 20
44.979355535304407
 30
0.0
 11
88152.464801007955
 21
44.395554022399672
 31
0.0
  0
LINE
  5
645FE
  8
0
 10
88161.464801007955
 20
44.395554022399672
 30
0.0
 11
88161.464801007955
 21
40.395554022399658
 31
0.0
  0
LINE
  5
645FF
  8
0
 10
88149.464801007955
 20
44.395554022399672
 30
0.0
 11
88149.464801007955
 21
40.395554022399658
 31
0.0
  0
LINE
  5
64600
  8
0
 10
89479.941951661836
 20
44.39555402239602
 30
0.0
 11
89479.941951661836
 21
60.395554022396027
 31
0.0
  0
ARC
  5
64601
  8
0
 10
89509.941951661836
 20
52.39555402239602
 30
0.0
 40
8.0000000000000018
 50
270.0
 51
90.0
  0
ARC
  5
64602
  8
0
 10
89249.941951661807
 20
52.39555402239602
 30
0.0
 40
8.0000000000000018
 50
90.0
 51
270.0
  0
LINE
  5
64603
  8
0
 10
89279.941951661807
 20
44.39555402239602
 30
0.0
 11
89279.941951661807
 21
60.395554022396027
 31
0.0
  0
LINE
  5
64604
  8
0
 10
89257.941951661836
 20
493.18324567757918
 30
0.0
 11
89257.941951661836
 21
60.395554022396027
 31
0.0
  0
LINE
  5
64605
  8
0
 10
89241.941951661807
 20
493.18324567757918
 30
0.0
 11
89241.941951661807
 21
52.39555402239602
 31
0.0
  0
LINE
  5
64606
  8
0
 10
89479.941951661836
 20
44.39555402239602
 30
0.0
 11
89509.941951661836
 21
44.39555402239602
 31
0.0
  0
LINE
  5
64607
  8
0
 10
89509.941951661836
 20
60.395554022396027
 30
0.0
 11
89479.941951661836
 21
60.395554022396027
 31
0.0
  0
LINE
  5
64608
  8
0
 10
89249.941951661807
 20
44.39555402239602
 30
0.0
 11
89279.941951661807
 21
44.39555402239602
 31
0.0
  0
LINE
  5
64609
  8
0
 10
89279.941951661807
 20
60.395554022396027
 30
0.0
 11
89249.941951661807
 21
60.395554022396027
 31
0.0
  0
LINE
  5
6460A
  8
0
 10
89479.941951661836
 20
44.39555402239602
 30
0.0
 11
89470.941951661807
 21
44.39555402239602
 31
0.0
  0
LINE
  5
6460B
  8
0
 10
89458.941951661822
 20
44.39555402239602
 30
0.0
 11
89300.941951661822
 21
44.39555402239602
 31
0.0
  0
LINE
  5
6460C
  8
0
 10
89288.941951661836
 20
44.39555402239602
 30
0.0
 11
89279.941951661807
 21
44.39555402239602
 31
0.0
  0
LINE
  5
6460D
  8
0
 10
89479.941951661836
 20
60.395554022396027
 30
0.0
 11
89279.941951661807
 21
60.395554022396027
 31
0.0
  0
POLYLINE
  5
6460E
  8
0
 66
     1
 10
0.0
 20
0.0
 30
0.0
 70
   128
  0
VERTEX
  5
6460F
  8
0
 10
89243.941947847125
 20
808.39555402239614
 30
0.0
  0
VERTEX
  5
64610
  8
0
 10
89243.951904206973
 20
808.05723835667413
 30
0.0
  0
VERTEX
  5
64611
  8
0
 10
89243.981830507037
 20
807.71912974258692
 30
0.0
  0
VERTEX
  5
64612
  8
0
 10
89244.031831651446
 20
807.38203679164678
 30
0.0
  0
VERTEX
  5
64613
  8
0
 10
89244.102012544376
 20
807.04676811536581
 30
0.0
  0
VERTEX
  5
64614
  8
0
 10
89244.192459016558
 20
806.71413277229112
 30
0.0
  0
VERTEX
  5
64615
  8
0
 10
89244.303514390704
 20
806.38436202844423
 30
0.0
  0
VERTEX
  5
64616
  8
0
 10
89244.435607820269
 20
806.05782364448339
 30
0.0
  0
VERTEX
  5
64617
  8
0
 10
89244.589006334063
 20
805.73564668139261
 30
0.0
  0
VERTEX
  5
64618
  8
0
 10
89244.763976960894
 20
805.41896064719015
 30
0.0
  0
VERTEX
  5
64619
  8
0
 10
89244.960777192813
 20
805.10889549692911
 30
0.0
  0
VERTEX
  5
6461A
  8
0
 10
89245.179998307925
 20
804.80619390448373
 30
0.0
  0
VERTEX
  5
6461B
  8
0
 10
89245.422508149873
 20
804.51160182198316
 30
0.0
  0
VERTEX
  5
6461C
  8
0
 10
89245.688497453448
 20
804.22698308666986
 30
0.0
  0
VERTEX
  5
6461D
  8
0
 10
89245.978156953555
 20
803.954231338108
 30
0.0
  0
VERTEX
  5
6461E
  8
0
 10
89246.291629701387
 20
803.69523932179254
 30
0.0
  0
VERTEX
  5
6461F
  8
0
 10
89246.629163652178
 20
803.4519158764723
 30
0.0
  0
VERTEX
  5
64620
  8
0
 10
89246.990701585528
 20
803.22660227259428
 30
0.0
  0
VERTEX
  5
64621
  8
0
 10
89247.375747590777
 20
803.02201469382089
 30
0.0
  0
VERTEX
  5
64622
  8
0
 10
89247.783758073565
 20
802.84087737044126
 30
0.0
  0
VERTEX
  5
64623
  8
0
 10
89248.212415605303
 20
802.68656273325723
 30
0.0
  0
VERTEX
  5
64624
  8
0
 10
89248.658306031924
 20
802.5624050660972
 30
0.0
  0
VERTEX
  5
64625
  8
0
 10
89249.119808107134
 20
802.47084041079324
 30
0.0
  0
VERTEX
  5
64626
  8
0
 10
89249.592716127154
 20
802.41454441984934
 30
0.0
  0
VERTEX
  5
64627
  8
0
 10
89250.07052603316
 20
802.39555378397745
 30
0.0
  0
SEQEND
  5
64628
  8
0
  0
LINE
  5
64629
  8
0
 10
89243.941951661836
 20
533.18324567757907
 30
0.0
 11
89243.941951661836
 21
808.39555402239614
 31
0.0
  0
LINE
  5
6462A
  8
0
 10
89255.941951661822
 20
533.18324567757907
 30
0.0
 11
89255.941951661822
 21
802.39555402239603
 31
0.0
  0
ARC
  5
6462B
  8
0
 10
89529.941951661822
 20
808.39555402239614
 30
0.0
 40
6.0
 50
270.0
 51
90.0
  0
ARC
  5
6462C
  8
0
 10
89249.941951661807
 20
808.39555402239614
 30
0.0
 40
6.0
 50
90.0
 51
180.0
  0
LINE
  5
6462D
  8
0
 10
89529.941951661822
 20
814.39555402239591
 30
0.0
 11
89249.941951661807
 21
814.39555402239591
 31
0.0
  0
LINE
  5
6462E
  8
0
 10
89250.070523090384
 20
802.39555402239603
 30
0.0
 11
89529.941951661822
 21
802.39555402239603
 31
0.0
  0
LINE
  5
6462F
  8
RIFER
 10
89598.839165952493
 20
838.7856622758427
 30
0.0
 11
89181.044737371136
 21
838.7856622758427
 31
0.0
  0
ARC
  5
64630
  8
0
 10
89181.555524331387
 20
839.6453695988547
 30
0.0
 40
1.0
 50
135.0000000002301
 51
239.2837370033559
  0
ARC
  5
64631
  8
0
 10
89598.328378992257
 20
839.6453695988547
 30
0.0
 40
1.0
 50
300.71626299664399
 51
44.999999999769841
  0
ARC
  5
64632
  8
0
 10
89185.207115262863
 20
843.29696053033695
 30
0.0
 40
1.0
 50
90.0
 51
135.0000000002301
  0
ARC
  5
64633
  8
0
 10
89594.676788060766
 20
843.29696053033695
 30
0.0
 40
1.0
 50
44.999999999769841
 51
90.0
  0
LINE
  5
64634
  8
0
 10
89594.676788060766
 20
844.29696053033695
 30
0.0
 11
89185.207115262863
 21
844.29696053033695
 31
0.0
  0
LINE
  5
64635
  8
0
 10
89595.383894841958
 20
844.00406731152361
 30
0.0
 11
89599.035485773435
 21
840.35247638004148
 31
0.0
  0
LINE
  5
64636
  8
0
 10
89184.500008481715
 20
844.00406731152361
 30
0.0
 11
89180.848417550224
 21
840.35247638004148
 31
0.0
  0
ARC
  5
64637
  8
0
 10
89276.561898937754
 20
999.55093167896837
 30
0.0
 40
187.0
 50
239.2837370033559
 51
261.9456924793086
  0
ARC
  5
64638
  8
0
 10
89503.322004385889
 20
999.55093167896837
 30
0.0
 40
187.0
 50
278.0543075206914
 51
300.71626299664399
  0
LINE
  5
64639
  8
0
 10
89237.941951661822
 20
533.18324567757907
 30
0.0
 11
89261.941951661822
 21
533.18324567757907
 31
0.0
  0
LINE
  5
6463A
  8
0
 10
89261.941951661822
 20
493.18324567757918
 30
0.0
 11
89237.941951661822
 21
493.18324567757918
 31
0.0
  0
LINE
  5
6463B
  8
0
 10
89261.941951661822
 20
533.18324567757907
 30
0.0
 11
89262.441951661822
 21
532.68324567757907
 31
0.0
  0
LINE
  5
6463C
  8
0
 10
89237.941951661822
 20
533.18324567757907
 30
0.0
 11
89237.441951661822
 21
532.68324567757907
 31
0.0
  0
LINE
  5
6463D
  8
0
 10
89237.941951661822
 20
493.18324567757918
 30
0.0
 11
89237.441951661822
 21
493.68324567757918
 31
0.0
  0
LINE
  5
6463E
  8
0
 10
89261.941951661822
 20
493.18324567757918
 30
0.0
 11
89262.441951661822
 21
493.68324567757918
 31
0.0
  0
LINE
  5
6463F
  8
0
 10
89262.441951661822
 20
532.68324567757907
 30
0.0
 11
89262.441951661822
 21
493.68324567757918
 31
0.0
  0
LINE
  5
64640
  8
0
 10
89237.441951661822
 20
532.68324567757907
 30
0.0
 11
89237.441951661822
 21
493.68324567757918
 31
0.0
  0
LINE
  5
64641
  8
0
 10
89288.941951661836
 20
44.39555402239602
 30
0.0
 11
89300.941951661822
 21
44.39555402239602
 31
0.0
  0
LINE
  5
64642
  8
0
 10
89288.941951661836
 20
40.39555402239602
 30
0.0
 11
89300.941951661822
 21
40.39555402239602
 31
0.0
  0
LINE
  5
64643
  8
0
 10
89300.941951661822
 20
44.39555402239602
 30
0.0
 11
89300.941951661822
 21
40.39555402239602
 31
0.0
  0
LINE
  5
64644
  8
0
 10
89288.941951661836
 20
44.39555402239602
 30
0.0
 11
89288.941951661836
 21
40.39555402239602
 31
0.0
  0
LINE
  5
64645
  8
0
 10
89458.941951661822
 20
44.39555402239602
 30
0.0
 11
89470.941951661807
 21
44.39555402239602
 31
0.0
  0
LINE
  5
64646
  8
0
 10
89458.941951661822
 20
40.39555402239602
 30
0.0
 11
89470.941951661807
 21
40.39555402239602
 31
0.0
  0
LINE
  5
64647
  8
0
 10
89470.941951661807
 20
44.39555402239602
 30
0.0
 11
89470.941951661807
 21
40.39555402239602
 31
0.0
  0
LINE
  5
64648
  8
0
 10
89458.941951661822
 20
44.39555402239602
 30
0.0
 11
89458.941951661822
 21
40.39555402239602
 31
0.0
  0
POLYLINE
  5
64649
  8
0
 66
     1
 10
0.0
 20
0.0
 30
0.0
 70
   128
  0
VERTEX
  5
6464A
  8
0
 10
88139.400511478612
 20
808.39555402239614
 30
0.0
  0
VERTEX
  5
6464B
  8
0
 10
88139.410467838476
 20
808.05723835667413
 30
0.0
  0
VERTEX
  5
6464C
  8
0
 10
88139.440394138524
 20
807.71912974258692
 30
0.0
  0
VERTEX
  5
6464D
  8
0
 10
88139.490395282934
 20
807.38203679164678
 30
0.0
  0
VERTEX
  5
6464E
  8
0
 10
88139.560576175878
 20
807.04676811536581
 30
0.0
  0
VERTEX
  5
6464F
  8
0
 10
88139.651022648046
 20
806.71413277229112
 30
0.0
  0
VERTEX
  5
64650
  8
0
 10
88139.762078022206
 20
806.38436202844423
 30
0.0
  0
VERTEX
  5
64651
  8
0
 10
88139.894171451757
 20
806.05782364448339
 30
0.0
  0
VERTEX
  5
64652
  8
0
 10
88140.047569965536
 20
805.73564668139261
 30
0.0
  0
VERTEX
  5
64653
  8
0
 10
88140.222540592396
 20
805.41896064719015
 30
0.0
  0
VERTEX
  5
64654
  8
0
 10
88140.419340824315
 20
805.10889549692911
 30
0.0
  0
VERTEX
  5
64655
  8
0
 10
88140.638561939428
 20
804.80619390448373
 30
0.0
  0
VERTEX
  5
64656
  8
0
 10
88140.881071781347
 20
804.51160182198316
 30
0.0
  0
VERTEX
  5
64657
  8
0
 10
88141.147061084936
 20
804.22698308666986
 30
0.0
  0
VERTEX
  5
64658
  8
0
 10
88141.436720585058
 20
803.954231338108
 30
0.0
  0
VERTEX
  5
64659
  8
0
 10
88141.750193332846
 20
803.69523932179254
 30
0.0
  0
VERTEX
  5
6465A
  8
0
 10
88142.087727283666
 20
803.4519158764723
 30
0.0
  0
VERTEX
  5
6465B
  8
0
 10
88142.449265217016
 20
803.22660227259428
 30
0.0
  0
VERTEX
  5
6465C
  8
0
 10
88142.834311222265
 20
803.02201469382089
 30
0.0
  0
VERTEX
  5
6465D
  8
0
 10
88143.242321705053
 20
802.84087737044126
 30
0.0
  0
VERTEX
  5
6465E
  8
0
 10
88143.670979236776
 20
802.68656273325723
 30
0.0
  0
VERTEX
  5
6465F
  8
0
 10
88144.116869663427
 20
802.5624050660972
 30
0.0
  0
VERTEX
  5
64660
  8
0
 10
88144.578371738608
 20
802.47084041079324
 30
0.0
  0
VERTEX
  5
64661
  8
0
 10
88145.051279758656
 20
802.41454441984934
 30
0.0
  0
VERTEX
  5
64662
  8
0
 10
88145.529089664647
 20
802.39555378397745
 30
0.0
  0
SEQEND
  5
64663
  8
0
  0
ARC
  5
64664
  8
0
 10
88425.40051529331
 20
808.39555402239614
 30
0.0
 40
6.0
 50
270.0
 51
90.0
  0
ARC
  5
64665
  8
0
 10
88145.40051529331
 20
808.39555402239614
 30
0.0
 40
6.0
 50
90.0
 51
180.0
  0
LINE
  5
64666
  8
0
 10
88425.40051529331
 20
814.39555402239591
 30
0.0
 11
88145.40051529331
 21
814.39555402239591
 31
0.0
  0
LINE
  5
64667
  8
0
 10
88145.529086721886
 20
802.39555402239603
 30
0.0
 11
88425.40051529331
 21
802.39555402239603
 31
0.0
  0
LINE
  5
64668
  8
RIFER
 10
88494.297729583981
 20
838.7856622758427
 30
0.0
 11
88076.503301002638
 21
838.7856622758427
 31
0.0
  0
ARC
  5
64669
  8
0
 10
88077.014087962889
 20
839.6453695988547
 30
0.0
 40
1.0
 50
135.0000000002301
 51
239.2837370033559
  0
ARC
  5
6466A
  8
0
 10
88493.78694262373
 20
839.6453695988547
 30
0.0
 40
1.0
 50
300.7162629966441
 51
44.999999999769827
  0
ARC
  5
6466B
  8
0
 10
88080.66567889438
 20
843.29696053033695
 30
0.0
 40
1.0
 50
90.0
 51
135.0000000002301
  0
ARC
  5
6466C
  8
0
 10
88490.135351692254
 20
843.29696053033695
 30
0.0
 40
1.0
 50
44.999999999769827
 51
90.0
  0
LINE
  5
6466D
  8
0
 10
88490.135351692254
 20
844.29696053033695
 30
0.0
 11
88080.66567889438
 21
844.29696053033695
 31
0.0
  0
LINE
  5
6466E
  8
0
 10
88490.842458473446
 20
844.00406731152361
 30
0.0
 11
88494.494049404937
 21
840.35247638004148
 31
0.0
  0
LINE
  5
6466F
  8
0
 10
88079.958572113173
 20
844.00406731152361
 30
0.0
 11
88076.306981181697
 21
840.35247638004148
 31
0.0
  0
ARC
  5
64670
  8
0
 10
88172.020462569257
 20
999.55093167896837
 30
0.0
 40
187.0
 50
239.2837370033559
 51
261.9456924793086
  0
ARC
  5
64671
  8
0
 10
88398.780568017377
 20
999.55093167896837
 30
0.0
 40
187.0
 50
278.0543075206914
 51
300.7162629966441
  0
POLYLINE
  5
64672
  8
RIFER
  6
TRATTEGGIATA2
 66
     1
 10
0.0
 20
0.0
 30
0.0
 70
   128
  0
VERTEX
  5
64673
  8
RIFER
  6
TRATTEGGIATA2
 10
89243.941947847139
 20
578.39555402240137
 30
0.0
  0
VERTEX
  5
64674
  8
RIFER
  6
TRATTEGGIATA2
 10
89243.951904207002
 20
578.05723835667959
 30
0.0
  0
VERTEX
  5
64675
  8
RIFER
  6
TRATTEGGIATA2
 10
89243.981830507051
 20
577.71912974259237
 30
0.0
  0
VERTEX
  5
64676
  8
RIFER
  6
TRATTEGGIATA2
 10
89244.03183165146
 20
577.38203679165235
 30
0.0
  0
VERTEX
  5
64677
  8
RIFER
  6
TRATTEGGIATA2
 10
89244.102012544405
 20
577.04676811537126
 30
0.0
  0
VERTEX
  5
64678
  8
RIFER
  6
TRATTEGGIATA2
 10
89244.192459016587
 20
576.71413277229647
 30
0.0
  0
VERTEX
  5
64679
  8
RIFER
  6
TRATTEGGIATA2
 10
89244.303514390718
 20
576.38436202844969
 30
0.0
  0
VERTEX
  5
6467A
  8
RIFER
  6
TRATTEGGIATA2
 10
89244.435607820284
 20
576.05782364448896
 30
0.0
  0
VERTEX
  5
6467B
  8
RIFER
  6
TRATTEGGIATA2
 10
89244.589006334063
 20
575.73564668139795
 30
0.0
  0
VERTEX
  5
6467C
  8
RIFER
  6
TRATTEGGIATA2
 10
89244.763976960909
 20
575.41896064719538
 30
0.0
  0
VERTEX
  5
6467D
  8
RIFER
  6
TRATTEGGIATA2
 10
89244.960777192842
 20
575.10889549693445
 30
0.0
  0
VERTEX
  5
6467E
  8
RIFER
  6
TRATTEGGIATA2
 10
89245.179998307955
 20
574.80619390448726
 30
0.0
  0
VERTEX
  5
6467F
  8
RIFER
  6
TRATTEGGIATA2
 10
89245.422508149873
 20
574.51160182198873
 30
0.0
  0
VERTEX
  5
64680
  8
RIFER
  6
TRATTEGGIATA2
 10
89245.688497453462
 20
574.22698308667339
 30
0.0
  0
VERTEX
  5
64681
  8
RIFER
  6
TRATTEGGIATA2
 10
89245.978156953584
 20
573.95423133811164
 30
0.0
  0
VERTEX
  5
64682
  8
RIFER
  6
TRATTEGGIATA2
 10
89246.291629701387
 20
573.69523932179607
 30
0.0
  0
VERTEX
  5
64683
  8
RIFER
  6
TRATTEGGIATA2
 10
89246.629163652193
 20
573.45191587647605
 30
0.0
  0
VERTEX
  5
64684
  8
RIFER
  6
TRATTEGGIATA2
 10
89246.990701585542
 20
573.22660227259803
 30
0.0
  0
VERTEX
  5
64685
  8
RIFER
  6
TRATTEGGIATA2
 10
89247.375747590791
 20
573.02201469382453
 30
0.0
  0
VERTEX
  5
64686
  8
RIFER
  6
TRATTEGGIATA2
 10
89247.78375807358
 20
572.84087737044501
 30
0.0
  0
VERTEX
  5
64687
  8
RIFER
  6
TRATTEGGIATA2
 10
89248.212415605332
 20
572.68656273326087
 30
0.0
  0
VERTEX
  5
64688
  8
RIFER
  6
TRATTEGGIATA2
 10
89248.658306031954
 20
572.56240506610084
 30
0.0
  0
VERTEX
  5
64689
  8
RIFER
  6
TRATTEGGIATA2
 10
89249.119808107163
 20
572.47084041079677
 30
0.0
  0
VERTEX
  5
6468A
  8
RIFER
  6
TRATTEGGIATA2
 10
89249.592716127168
 20
572.41454441985286
 30
0.0
  0
VERTEX
  5
6468B
  8
RIFER
  6
TRATTEGGIATA2
 10
89250.070526033174
 20
572.39555378398109
 30
0.0
  0
SEQEND
  5
6468C
  8
RIFER
  6
TRATTEGGIATA2
  0
ARC
  5
6468D
  8
RIFER
  6
TRATTEGGIATA2
 10
89529.941951661836
 20
578.39555402231599
 30
0.0
 40
6.0
 50
270.0
 51
90.0
  0
ARC
  5
6468E
  8
RIFER
  6
TRATTEGGIATA2
 10
89249.941951661836
 20
578.39555402239955
 30
0.0
 40
6.0
 50
90.0
 51
180.0
  0
LINE
  5
6468F
  8
RIFER
  6
TRATTEGGIATA2
 10
89529.941951661851
 20
584.39555402231588
 30
0.0
 11
89249.941951661851
 21
584.39555402239955
 31
0.0
  0
LINE
  5
64690
  8
RIFER
  6
TRATTEGGIATA2
 10
89250.070523090413
 20
572.39555402239955
 30
0.0
 11
89529.941951661836
 21
572.39555402231588
 31
0.0
  0
LINE
  5
64691
  8
RIFER
  6
TRATTEGGIATA2
 10
89598.839165952522
 20
608.78566227574265
 30
0.0
 11
89181.044737371165
 21
608.78566227586634
 31
0.0
  0
ARC
  5
64692
  8
RIFER
  6
TRATTEGGIATA2
 10
89181.555524331416
 20
609.64536959887846
 30
0.0
 40
1.0
 50
135.0000000002301
 51
239.2837370033559
  0
ARC
  5
64693
  8
RIFER
  6
TRATTEGGIATA2
 10
89598.328378992272
 20
609.64536959875466
 30
0.0
 40
1.0
 50
300.71626299664399
 51
44.999999999769841
  0
ARC
  5
64694
  8
RIFER
  6
TRATTEGGIATA2
 10
89185.207115262907
 20
613.29696053035866
 30
0.0
 40
1.0
 50
90.0
 51
135.0000000002301
  0
ARC
  5
64695
  8
RIFER
  6
TRATTEGGIATA2
 10
89594.676788060795
 20
613.29696053023861
 30
0.0
 40
1.0
 50
44.999999999769841
 51
90.0
  0
LINE
  5
64696
  8
RIFER
  6
TRATTEGGIATA2
 10
89594.676788060795
 20
614.29696053023872
 30
0.0
 11
89185.207115262907
 21
614.29696053035866
 31
0.0
  0
LINE
  5
64697
  8
RIFER
  6
TRATTEGGIATA2
 10
89595.383894841987
 20
614.00406731142346
 30
0.0
 11
89599.035485773449
 21
610.35247637994144
 31
0.0
  0
LINE
  5
64698
  8
RIFER
  6
TRATTEGGIATA2
 10
89184.500008481715
 20
614.00406731154544
 30
0.0
 11
89180.848417550224
 21
610.35247638006513
 31
0.0
  0
ARC
  5
64699
  8
RIFER
  6
TRATTEGGIATA2
 10
89276.561898937827
 20
769.55093167896302
 30
0.0
 40
187.0
 50
239.2837370033559
 51
261.9456924793086
  0
ARC
  5
6469A
  8
RIFER
  6
TRATTEGGIATA2
 10
89503.322004385962
 20
769.55093167889572
 30
0.0
 40
187.0
 50
278.0543075206914
 51
300.71626299664399
  0
LINE
  5
730A8
  8
RIFER
 10
87043.446923669486
 20
-1274.816421980554
 30
0.0
 11
90797.238923669516
 21
-1274.816421980554
 31
0.0
  0
LINE
  5
730A9
  8
0
 10
90752.550923669507
 20
-1230.12842198055
 30
0.0
 11
87088.13492366951
 21
-1230.12842198055
 31
0.0
  0
LINE
  5
730AA
  8
RIFER
 10
87043.446923669486
 20
1379.6507780194499
 30
0.0
 11
90797.238923669516
 21
1379.6507780194499
 31
0.0
  0
LINE
  5
730AB
  8
0
 10
87088.13492366951
 20
1334.9627780194519
 30
0.0
 11
90752.550923669507
 21
1334.9627780194519
 31
0.0
  0
LINE
  5
730AC
  8
RIFER
 10
87043.446923669486
 20
1379.6507780194499
 30
0.0
 11
87043.446923669486
 21
-1274.816421980554
 31
0.0
  0
LINE
  5
730AD
  8
0
 10
87088.13492366951
 20
1334.9627780194519
 30
0.0
 11
87088.13492366951
 21
-1230.12842198055
 31
0.0
  0
LINE
  5
730B5
  8
0
 10
90752.550923669507
 20
-1230.12842198055
 30
0.0
 11
90752.550923669507
 21
1334.9627780194519
 31
0.0
  0
LINE
  5
730B6
  8
RIFER
 10
90797.238923669516
 20
1379.6507780194499
 30
0.0
 11
90797.238923669516
 21
-1274.816421980554
 31
0.0
  0
VIEWPORT
  5
10AD4
 67
     1
  8
0
 10
5.2499996395561626
 20
3.9999998836066779
 30
0.0
 40
16.74924117679188
 41
8.9929997457669497
 68
     1
 69
     1
1001
ACAD
1000
MVIEW
1002
{
1070
    16
1010
0.0
1020
0.0
1030
0.0
1010
0.0
1020
0.0
1030
1.0
1040
0.0
1040
8.9929997457669497
1040
5.2499996395561626
1040
3.9999998836066779
1040
50.0
1040
0.0
1040
0.0
1070
     0
1070
   100
1070
     1
1070
     1
1070
     0
1070
     0
1070
     0
1070
     0
1040
0.0
1040
0.0
1040
0.0
1040
10.0
1040
10.0
1040
10.0
1040
10.0
1070
     0
1002
{
1002
}
1002
}
  0
VIEWPORT
  5
10AD6
 67
     1
  8
QUOTE
 10
5.24999976158142
 20
3.99999976158142
 30
0.0
 40
8.3999996185302717
 41
6.3999996185302717
 68
     2
 69
     2
1001
ACAD
1000
MVIEW
1002
{
1070
    16
1010
0.0
1020
0.0
1030
0.0
1010
0.0
1020
0.0
1030
1.0
1040
0.0
1040
3020.3315643248211
1040
14229.63300637194
1040
6252.7068645831841
1040
50.0
1040
0.0
1040
0.0
1070
     0
1070
   100
1070
     1
1070
     0
1070
     0
1070
     0
1070
     0
1070
     0
1040
0.0
1040
0.0
1040
0.0
1040
1.0
1040
1.0
1040
0.0
1040
0.0
1070
     0
1002
{
1002
}
1002
}
  0
ENDSEC
  0
EOF
